Oops, an error
Loading. Please wait.

Seven Months Tab

200 views 1 this week
1 commentread comment
1 2 3 4 5
1 last vote to show rating
add to favorites
launch autoscroll
font size
0
reset
how to read this tab
guitar tuner
Autoscroll
slow
fast
+/-
esc
set tempo
stop
Help us to improve Ultimate-Guitar.com Take our survey!
×
Author
Nobody had this song by letters kills tabbed and its a good one to play. Hope u like
the tabs and EnJoi ":)  email me if anything .. kman_psycho@hotmail.com

KEY: h- harmonic
     b- bend
     P- pull off
     h- hammer on
     s- slide
     t- trembelo
     **- palm mute

    intro riff - lead guitar
e|-------------------------------------------------------------------|
b|-------------------------------------------------------------------|
g|--6r-----6-6-6-6---6s8s6r-----6-6-6-6---6s8s6r-----6-6-6-6---------| x2
d|------4r--4-4-4-4---------3r---3-3-3-3----------4r--4-4-4-4--------|
a|-------------------------------------------------------------------|
D|-------------------------------------------------------------------|
           ********             ********             ******** 

     intro riff - rythm guitar
e|------------------------------------------------------------xx-xx--|
b|------------------------------------------------------------xx-xx--|
g|-----------------------------------------4-4-4-4-4-4-4-4----xx-xx--| 
d|--4-4-4-4-4-4-4-4---3-3-3-3-3-3-3-3------4-4-4-4-4-4-4-4----xx-xx--| x2
a|--4-4-4-4-4-4-4-4---3-3-3-3-3-3-3-3------2-2-2-2-2-2-2-2----xx-xx--|
D|--4-4-4-4-4-4-4-4---3-3-3-3-3-3-3-3-------------------------xx-xx--|


little thing leading to verse
e|----------------------|
b|----------------------|
g|--4hb-44-4p3p1h3-3b-s4| 
d|----------------------|
a|----------------------|
D|----------------------|

verse one (i think its done in actual chords...but here are the octave chords)
e|---------------------------------------|
b|---------------------------------------|
g|--11-------13--------11-------8--------| x4
d|--x--------x---------x--------x--------|
a|--9--------11--------9|-------6--------|
D|---------------------------------------|

Lead Guitar
im not 100% sure on   /|    this     |\ part 
e|----------------------------------------|
b|----------------------------------------|
g|---------------------4-4-4-3h4p3s1------|
d|--6t---6-6-4-4---6t---------------------|
a|------------6---------------------------|
D|----------------------------------------|

rythm guitar  
e|----------------------------------------|
b|----------------------------------------|
g|-------------------6-6-6-6-6-6-6-6------|
d|--6-6-6-6-6-6-6-6--6-6-6-6-6-6-6-6------|
a|--6-6-6-6-6-6-6-6--4-4-4-4-4-4-4-4------|
D|--6-6-6-6-6-6-6-6-----------------------|


chorus - lead guitar (same as intro)
e|-------------------------------------------------------------------|
b|-------------------------------------------------------------------|
g|--6r-----6-6-6-6---6s8s6r-----6-6-6-6---6s8s6r-----6-6-6-6---------| x2
d|------4r--4-4-4-4---------3r---3-3-3-3----------4r--4-4-4-4--------|
a|-------------------------------------------------------------------|
D|-------------------------------------------------------------------|
           ********             ********             ******** 

chorus - rythm guitar(same as intro)
e|------------------------------------------------------------xx-xx--|
b|------------------------------------------------------------xx-xx--|
g|-----------------------------------------4-4-4-4-4-4-4-4----xx-xx--| 
d|--4-4-4-4-4-4-4-4---3-3-3-3-3-3-3-3------4-4-4-4-4-4-4-4----xx-xx--| x2
a|--4-4-4-4-4-4-4-4---3-3-3-3-3-3-3-3------2-2-2-2-2-2-2-2----xx-xx--|
D|--4-4-4-4-4-4-4-4---3-3-3-3-3-3-3-3-------------------------xx-xx--|

little thing leading to bridge thing ehe
e|----------------------|
b|----------------------|
g|--4hb-44-4p3p1h3-3b-s4| 
d|----------------------|
a|----------------------|
D|----------------------|

the bridge, leads to verse two
e|----------------9------------------------9-9-9-7-6-6h7--|
b|--11--11-9--9-77-7-----11-11h12-11-9--------------------|
g|------------------8-------------------------------------| 
d|--------------------------------------------------------|
a|--------------------------------------------------------|
D|--------------------------------------------------------|


verse two 
e|---------------------------------------|
b|---------------------------------------|
g|--15-------13--------11-------8--------| x4
d|--x--------x---------x--------x--------|
a|--13-------11--------9--------6--------|
D|---------------------------------------|

Lead Guitar
im not 100% sure on   /|    this     |\ part 
e|----------------------------------------|
b|----------------------------------------|
g|---------------------4-4-4-3h4p3s1------|
d|--6t---6-6-4-4---6t---------------------|
a|------------6---------------------------|
D|----------------------------------------|

rythm guitar  
e|----------------------------------------|
b|----------------------------------------|
g|-------------------6-6-6-6-6-6-6-6------|
d|--6-6-6-6-6-6-6-6--6-6-6-6-6-6-6-6------|
a|--6-6-6-6-6-6-6-6--4-4-4-4-4-4-4-4------|
D|--6-6-6-6-6-6-6-6-----------------------|


chorus - lead guitar (same as intro)
e|-------------------------------------------------------------------|
b|-------------------------------------------------------------------|
g|--6r-----6-6-6-6---6s8s6r-----6-6-6-6---6s8s6r-----6-6-6-6---------| x2
d|------4r--4-4-4-4---------3r---3-3-3-3----------4r--4-4-4-4--------|
a|-------------------------------------------------------------------|
D|-------------------------------------------------------------------|
           ********             ********             ******** 

chorus - rythm guitar(same as intro)
e|------------------------------------------------------------xx-xx--|
b|------------------------------------------------------------xx-xx--|
g|-----------------------------------------4-4-4-4-4-4-4-4----xx-xx--| 
d|--4-4-4-4-4-4-4-4---3-3-3-3-3-3-3-3------4-4-4-4-4-4-4-4----xx-xx--| x2
a|--4-4-4-4-4-4-4-4---3-3-3-3-3-3-3-3------2-2-2-2-2-2-2-2----xx-xx--|
D|--4-4-4-4-4-4-4-4---3-3-3-3-3-3-3-3-------------------------xx-xx--|

leads to the solo
e|----------------------|
b|----------------------|
g|--4hb-44-4p3p1h3-3b-s4| 
d|----------------------|
a|----------------------|
D|----------------------|


Solo (rythm guitar)
e|---------------------------------------------------------------------|
b|---------------------------------------------------------------------|
g|------------------4444444444444444------------------6666666666666666-| 
d|-6666666666666666-4444444444444444-4444444444444444-6666666666666666-|x3
a|-6666666666666666-2222222222222222-4444444444444444-4444444444444444-|
D|-6666666666666666------------------4444444444444444------------------|

solo (lead guitar)
e|------------------------------14h16-14-------14----------------------|
b|--------------------------------------14--14b--14b-11-11-11-11-11-11-|
g|---------------------------------------------------------------------|
d|---------------------------------------------------------------------|
a|---------------------------------------------------------------------|
D|---------------------------------------------------------------------|

e|-------------------------------------------------------------------|
b|-12p11-12p11-12p11---12p11-12p11-12p11---12p11-12p11-12p11---------|
g|------------------11-----------------------------------------------|
d|--------------------------------------11---------------------------|
a|----------------------------------------------------------11-s-13--|
D|-------------------------------------------------------------------|


e|-s16-14------------------------------------------------------------|
b|-------16-14--9s11-11-11-11-11--9h11p9-----------------------------|
g|--------------------------------------11r--------------------------|
d|-------------------------------------------------------------------|
a|-------------------------------------------------------------------|
D|-------------------------------------------------------------------|



chorus lead >slighty changed from original
e|-------------------------------------------------------------------|
b|-------------------------------------------------------------------|
g|-----------------------6r-----6-6-6-6---6s8s6r-----6-6-6-6---------|
d|--------------------------3r---3-3-3-3----------4r--4-4-4-4--------|
a|-------------------------------------------------------------------|
D|-------------------------------------------------------------------|
                                 ********             ******** 

chorus - rythm guitar(same as intro)
e|------------------------------------------------------------xx-xx--|
b|------------------------------------------------------------xx-xx--|
g|-----------------------------------------4-4-4-4-4-4-4-4----xx-xx--| 
d|--4r----------------3-3-3-3-3-3-3-3------4-4-4-4-4-4-4-4----xx-xx--|
a|--4r----------------3-3-3-3-3-3-3-3------2-2-2-2-2-2-2-2----xx-xx--|
D|--4r----------------3-3-3-3-3-3-3-3-------------------------xx-xx--|


chorus - lead guitar (back to normal)
e|-------------------------------------------------------------------|
b|-------------------------------------------------------------------|
g|--6r-----6-6-6-6---6s8s6r-----6-6-6-6---6s8s6r-----6-6-6-6---------|
d|------4r--4-4-4-4---------3r---3-3-3-3----------4r--4-4-4-4--------|
a|-------------------------------------------------------------------|
D|-------------------------------------------------------------------|
           ********             ********             ******** 

chorus - rythm guitar (back to normal)
e|------------------------------------------------------------xx-xx--|
b|------------------------------------------------------------xx-xx--|
g|-----------------------------------------4-4-4-4-4-4-4-4----xx-xx--| 
d|--4-4-4-4-4-4-4-4---3-3-3-3-3-3-3-3------4-4-4-4-4-4-4-4----xx-xx--| 
a|--4-4-4-4-4-4-4-4---3-3-3-3-3-3-3-3------2-2-2-2-2-2-2-2----xx-xx--|
D|--4-4-4-4-4-4-4-4---3-3-3-3-3-3-3-3-------------------------xx-xx--|
                           
e|----------------------| |-------------|
b|----------------------| |-------------|<<
            
                            
Suggest correction
Give kudos to tab author, rate the tab!
1 2 3 4 5
comments
print report bad tab
1 comment total.
0 reply
canadium 90 Sep 22, 2004 12:00 AM

WOW THIS TAB IS AMAZING.

GOOD JOB BRETT-SUSTENANCE.

guest
You may want to rate the tab now too:
select rating
Wanna post a correction for this tab? Suggest correction