Oops, an error
Loading. Please wait.

Ruang Rindu Tab

7,076 views 69 this week
no commentswrite comment
1 2 3 4 5
please rate
add to favorites
launch autoscroll
font size
0
reset
how to read this tab
guitar tuner
Tab Pro tools
  • play this tab
  • loop segment
  • change instrument
  • show fretboard
  • metronome
×
Best way to learn
"Ruang Rindu"
Autoscroll
slow
fast
+/-
esc
set tempo
stop
Contributor
Song         : Ruang Rindu
Artist       : Letto
Tabbed by    : yoos (yoosyoes.blogspot.com)


Fig1
e|-----------------------------------------------------|
B|---------------------8p7-8--7------------------------|
G|--------7-7/9-----------------9--7-------------------|
D|--7-7h9-------9p7-9----------------9--7p5--4p2-------|
A|------------------------------------------------5p2--|
E|-----------------------------------------------------|

Fig2
e|---------------|
B|---------------|
G|---------------|
D|------------7--|
A|-------7h9-----|
E|--7h9----------|

Fig3
e|--------------|
B|--------------|
G|-----4--4/7\--|
D|--7-----------|
A|--------------|
E|--------------|

Fig4
e|--------------|
B|-------10-----|
G|-----9-----9--|
D|--11----------|
A|--------------|
E|--------------|

Fig5
e|--------10-------|
B|-----10----------|
G|--11---------11--|
D|-----------------|
A|-----------------|
E|-----------------|

Fig6
e|-------------------------|
B|-------------------------|
G|--6-7-6-------7p6--------|
D|--------7---7-----9-7-9--|
A|-------------------------|
E|-------------------------|

Fig7
e|----------5----------5--------5----|
B|--------5---5------5---5--------5--|
G|------7-------7----------7---------|
D|----7----------------------7-------|
A|--5--------------5-----------------|
E|-----------------------------------|

e|----4---4---4-------5---5---5-------7----7----7--------7--|
B|------7---7---7---7---8---8---8---8---10---10---10---10---|
G|--7-------------------------------------------------9-----|
D|----------------------------------------------------------|
A|----------------------------------------------------------|
E|----------------------------------------------------------|

e|---------------------------------------------------|
B|--------------------5-----------------7-5---5/7----|
G|----------7-----4-7---6---2/4-6-7p6p4-----7-----7--|
D|------5-7-----7------------------------------------|
A|--5-7----------------------------------------------|
E|---------------------------------------------------|

e|-----------------------5--------------------------|
B|-------------5-----5h7---5------------------------|
G|----------7----7------------7--6-7-6h7p6-4---4----|
D|------5-7--------7-------------------------7------|
A|--5-7------------------------------------------7--|
E|--------------------------------------------------|

e|-----------7--------7-10/12-10p8---------------------|
B|------7-10-----7-10--------------10------------------|
G|--6-9---------------------------------11-9-7-9/11-7--|
D|-----------------------------------------------------|
A|-----------------------------------------------------|
E|-----------------------------------------------------|

e|--8-7----7---------------------------------------------------|
B|------10---10-8-10-8-7-8-7---7-------------------------------|
G|---------------------------9---9-7-9-7-6-7-6---6-------------|
D|---------------------------------------------9---9-7-9--7-6--|
A|-------------------------------------------------------------|
E|-------------------------------------------------------------|

e|---------------------------------------10---10/12-10---7----------------|
B|--------------------------8p7---7-8-10-------------------10-7-----------|
G|--------------7p6---6-7-9-----9-------------------------------9-7-9/11--|
D|------6-7-9-------9-----------------------------------------------------|
A|--7-7-------------------------------------------------------------------|
E|------------------------------------------------------------------------|

Fig8
e|-------------------------------------------------------------------|
B|--6-6-6---4-6-7--------------------------------------------8---10--|
G|------------------9-7-9/11-9-7---9-7-9/11-9-----9-7-9/11-x---x-----|
D|--------------------------------------------9----------------------|
A|-------------------------------------------------------------------|
E|-------------------------------------------------------------------|

e|--/7--7-x-7---/10-x-10----------------------------------------7--|
B|-------------------------8p7--------------8-7----7-7/10-8-7------|
G|-----------------------------7p6--4-6-4-6------6------------9----|
D|-----------------------------------------------------------------|
A|-----------------------------------------------------------------|
E|-----------------------------------------------------------------|

e|----7----7----7----7----7----7--|
B|--------------------------------|
G|--9----9----9----9----9----9----|
D|--------------------------------|
A|--------------------------------|
E|--------------------------------|

CHORD
=====

D          Em   G    A        D                   
Di daun yang ikut mengalir lembut  
D          Em     G       A  
Terbawa sungai ke ujung mata 

D          Em   G    A        D
Dan aku mulai takut terbawa cinta  
D          Em     G       A  
Menghirup rindu yang sesakkan dada 

Bm   A     G      A          D   
Jalanku hampa dan ku sentuh dia,  
Bm   A     G      A          D    
Terasa hangat di dalam hati 

Bm   A     G      A          D       
Kupegang erat dan kuhalangi waktu,  
Bm   A     G      A          D   
Tak urung jua ku lihatnya pergi 

Interlude: 
Fig1
E G  
                              
D          Em   G    A        D     Fig2
Tak pernah kuragu dan selalu kuingat  
D          Em     G       A         Fig3
Kerlingan matamu dan sentuhan hangat 
D          Em Fig4  G    A     D  Fig5
Ku saat itu takut mencari makna,  
D          Em     G       A       Fig6 
Tumbuhkan rasa yang sesakkan dada 


Bm   A     G      A          D 
Kau datang dan pergi begitu saja,  
Bm   A     G      A          D 
Semua ku terima apa adanya 
Bm   A     G      A          D     
Mata terpejam dan hati menggumam,  
Bm   A     G      A          D 
Di ruang rindu kita bertemu 

Fig7
F#m G A
Bm A G
Bm A G
Bm A G
D A E

Bm   A     G      A          D 
Kau datang dan pergi begitu saja,  
Bm   A     G      A          D 
Semua ku terima apa adanya 
Bm   A     G      A          D     
Mata terpejam dan hati menggumam,  
Bm   A     G      A          D 
Di ruang rindu kita bertemu 

Fig8
A D
comments
We did not receive enough feedback on this tab! Please rate:
print report bad tab
1 2 3 4 5
I want to post or [tab]
guest
You may want to rate the tab now too:
select rating
Please do not post tabs as comments. Select "correction" instead!