Oops, an error
Loading. Please wait.

Sebelum Cahaya Tab

version 1
version 1

Intro

Interactive

11,483 views 9 this week
no commentswrite comment
1 2 3 4 5
please rate
add to favorites
launch autoscroll
font size
0
reset
how to read this tab
guitar tuner
Autoscroll
slow
fast
+/-
esc
set tempo
stop
Help us to improve Ultimate-Guitar.com Take our survey!
×
Ni,da tabsna Letto yg sebelum cahaya
moga2 bener,yah...
(yg interlude doank..^.^)

|------------------------------------------|
|------------------------------------------|
|------------------------------------------|
|-------------13-12-12--10-11-11-10-12-----|
|---16--13-11--------------------------13--|
|------------------------------------------|

|------------------------------------------|
|------------------------------------------|
|------------------------------------------|
|------------------------------------------|
|--13-6--9-13-6-8--8-6-5-5---6---8---------|
|--------------------------8---10--12------|

|---------------------------------------------------------|
|---------------------------------------------------------|
|---------------------------------------------------------|
|---------------------------------------------------------|
|-----------------13----13--13----------------------------|
|--8---13--13--11---11--------9-9-9-11-13-13---13-11-11-15|
Suggest correction
Give kudos to tab author, rate the tab!
1 2 3 4 5
comments
print report bad tab
guest
You may want to rate the tab now too:
select rating
Wanna post a correction for this tab? Suggest correction