Oops, an error
Loading. Please wait.

Nachtmusik Bass Tab

761 views 1 this week
no commentswrite comment
1 2 3 4 5
please rate
add to favorites
launch autoscroll
font size
0
reset
guitar tuner
Autoscroll
slow
fast
+/-
esc
set tempo
stop
Help us to improve Ultimate-Guitar.com Take our survey!
×
Author
Difficulty
novice
--------------------------------------------------------------------------
			     NACHTMUSIK - Letzte Instanz
--------------------------------------------------------------------------
Band-Website: www.letzte-instanz.de

Tabbed By :Horacia 
e-mail: Mia_Lisa@gmx.de

Tuning: Standard


INTRO
G|---------|-0-0-0---|---------|---------|
D|-0-0-0---|---------|-0-0-0---|---------|
A|---------|---------|---------|-3-3-3---|
E|---------|---------|---------|---------|

VERSE
G|---2-----|-----2---|-0---0-3-|---------|
D|-0---0-3-|-0-3---0-|---0-----|-2---2---|
A|---------|---------|---------|---3---3-|
E|---------|---------|---------|---------|

CHORUS
G|-----2---|-3-2-0---|-----2---|-0-------|
D|-0-3---3-|-------3-|-0-3---3-|-----3-2-|
A|---------|---------|---------|---3-----|
E|---------|---------|---------|---------|

2x INTRO
4x VERSE w/o singing
2x VERSE w/ singing
2x VERSE w/o singing
2x VERSE w/ singing
1 measure break
4x CHORUS (last time w/o last measure)
1x INTRO 
2x VERSE w/o singing
2x VERSE w/singing
2x w/o singing
2x w/ singing
1 measure break
2x CHORUS

NO PLAYING 3x CHORUS

4x CHORUS (last time w/o last measure)

That's it!!!


Suggest correction
Give kudos to tab author, rate the tab!
1 2 3 4 5
comments
print report bad tab
guest
You may want to rate the tab now too:
select rating
Please do not post tabs as comments. Select "correction" instead!