Oops, an error
Loading. Please wait.

Dune Tune Bass Tab

version 1
version 1

Whole song

Interactive

10,811 views 18 this week
1 commentread comment
1 2 3 4 5
accurate
x 10
add to favorites
launch autoscroll
font size
0
reset
guitar tuner
Tab Pro tools
  • play this tab
  • loop segment
  • change instrument
  • show fretboard
  • metronome
×
Best way to learn
"Dune Tune"
Autoscroll
slow
fast
+/-
esc
set tempo
stop
Contributor
Artist: Mark King & Level 42
Song: Dune Tune

P= Pop      S= Slap

Part[A]:

G|-------13h14/16---18-16-14-----------14\13---13-13p16-13\11-
D|*12h14---------------------0-0-14h16------------------------
A|*-----------------------------------------------------------
E|----------------0--------------------------0----------------

G------------------------------------------------------------|
D-0-0--/11--14-14-----16-14-12--------14-12-11---9-11b12-9--*|
A-----------------0-0--------------------------0------------*|
E------------------------------13-13-----------------------0-|

Mark King actually plays this at the end of part A;
    D |------9b11b9---
    A |---10---------- 
but I found a full bend hard to do and this was what a trascription put
in there so I decided to give the choice up to you.

Part[B]:

G|--------------9h11---11/13---13h14p13p11-----11p9----9-7-0-
D|*----7h9/11--------0---------------------0-0---------------
A|*7h9--------0-------------------------------------10---8---
E|---------------------------0-------------------------------

1st ending                  2nd ending
G-h6---6-0h4---2-1-2=====-| G-h6---6---8--\6-6-4h6p4h6p4h6p4==|
D--------------------2===*| D---------------------------------|
A----0-----------------0=*| A----0---6------------------------|
E------------0------------| E------------7\5------------------|
                                             P P
Repeat Part[A]

Part[C]:

G|--------------------------------------------- \
D|*--------0-0-2---------4-4-2---------0-0-2---  \
A|*----4-4-----------2h4-----------4-4---------   \
E|-0-0-----------0-0-----------0-0-----------0-    \
                                                    \ 2x
 ending #1,#2,#3      ending #4                     /
G---3/4-----6\4---|  G-----------------|           /
D----------------*|  D-----------------|          /
A-1--/2-2/4------*|  A-2-1-0-----------|         /
E---------------0-|  E-------4-3-2-1-0-|        /

Then play the same riff with this ending, repeat 3x
G---3/4-----6/5---|
D----------------*|
A-1--/2-2/4------*|
E---------------0-|

Then 4 bars rest, and after that repeat part[A] 2 times, and slow down
at the end of the second time.

Part[D]:

G|-----9/11--------9/11-11\9-|
D|-----9/11--------9/11-11\9-|
A|---------------------------|
E|-0-x------x-0-xx-----------|
   S S P    S S SS P    P(orS)
comments
print report bad tab
1 comment total.
0 reply
Rackan wrote on November 8 2007, 01:32 pm

Not correct but an okey job

I want to post or [tab]
guest
You may want to rate the tab now too:
select rating
Please do not post tabs as comments. Select "correction" instead!