Oops, an error
Loading. Please wait.

Hot Water Bass Tab

version 1
version 1

Live

Whole song

Interactive

2,511 views 15 this week
no commentswrite comment
1 2 3 4 5
please rate
add to favorites
launch autoscroll
font size
0
reset
guitar tuner
Autoscroll
slow
fast
+/-
esc
set tempo
stop
Help us to improve Ultimate-Guitar.com Take our survey!
×
Author
yo i tab this song from level 42's live album so sorry if its different from the one you 
heard but aye!!!! awesome song :D

intro
|----12-13-14-12-13-----------------------------9-|
|-------------------14----------9---------------9-|
|---------------------14-10-12---10-------------7-|
|------------------------------------12-11-12-0---|

main riff
|-------------------------------------|
|------------------------4h5------2h3-|
|------5h7------5h7-------------------| repeat
|-0-0x-----0-0x-----5-5x-----3-3x-----|
  t tt p   t tt p   t tt p   t tt p

chorus
|-----12-11-9//11-9--------------------|
|-------------------------4h5------2h3-|
|--------------------------------------| x4
|-0-0----------------5-5x-----3-3x-----|

main riff
|-------------------------------------|
|------------------------4h5------2h3-|
|------5h7------5h7-------------------| repeat
|-0-0x-----0-0x-----5-5x-----3-3x-----|
  t tt p   t tt p   t tt p   t tt p

Bridge
|-4~--7~--9~9-----------7~-|     |-7h9-Xheaps-|
|-4~--7~--9~-----7---5--7~-|     |------------|
|-2~--5~--7~------------5~-| x4  |------------|
|--------------5---3-------|     |------------|
            p  t p t p

slap solo anyone??

main riff
|-------------------------------------|
|------------------------4h5------2h3-|
|------5h7------5h7-------------------| repeat
|-0-0x-----0-0x-----5-5x-----3-3x-----|
  t tt p   t tt p   t tt p   t tt p

2nd chorus
|-------------------------------------|
|------------------------4h5------2h3-|
|------5h7------5h7-------------------| repeat
|-0-0x-----0-0x-----5-5x-----3-3x-----|
  t tt p   t tt p   t tt p   t tt p

intro to interlude
|-2-0-----------------|
|-----2-0-----------2-|
|---------2-0-0h2-----|
|-----------------0---|

interlude
|--------------------------|
|----------4-5-------------|
|--------------3-4-5-------|
|--5--5--5-----------2-3-4-|

main riff
|-------------------------------------|
|------------------------4h5------2h3-|
|------5h7------5h7-------------------| repeat
|-0-0x-----0-0x-----5-5x-----3-3x-----|
  t tt p   t tt p   t tt p   t tt p

chorus
|-----12-11-9//11-9--------------------|
|-------------------------4h5------2h3-|
|--------------------------------------| x4
|-0-0----------------5-5x-----3-3x-----|

outro
|----12-13-14-12-13-----------------------------9-|
|-------------------14----------9---------------9-|
|---------------------14-10-12---10-------------7-|
|------------------------------------12-11-12-0---|
Suggest correction
Give kudos to tab author, rate the tab!
1 2 3 4 5
comments
print report bad tab
guest
You may want to rate the tab now too:
select rating
Wanna post a correction for this tab? Suggest correction