Oops, an error
Loading. Please wait.

Something About You Bass

version 2
version 2

Whole song

Interactive

12,428 views 18 this week
no commentswrite comment
1 2 3 4 5
x 3
add to favorites
×
Save as Personal and add changes to this tab that will be seen only by you. Learn more ›
launch autoscroll
font size
0
reset
guitar tuner
Autoscroll
slow
fast
+/-
esc
set tempo
stop
Author
Artist: Level 42
Song: Something About You
Tuning: standard

[Intro]                         

   S  S  S S  S  S     S  S  S  S S       S  S  S  S  S     S  S  S  S   S
G|-----------------|------------------|-------------------|------------------|
D|-----------------|------------------|-------------------|------------------|
A|---------0--2--3-|---3----------3~--|---5--2--------5~--|----7-------------|
E|-0--2--3---------|------5--3--0-----|---------5--2------|-0-----0--0---12\-|

   S  S  S S  S  S     S  S  S  S S       S  S  S  S  S     
G|-----------------|------------------|-------------------|
D|-----------------|------------------|-------------------|
A|---------0--2--3-|---3----------3~--|---5--2--------5~--|
E|-0--2--3---------|------5--3--0-----|---------5--2------|

[Verse]

G|-----------------|------------------|-------------7-7---|------------------|
D|-----------------|------------------|-------------------|------------------|
A|-7-7--7--7777-7-6|-4-4--4--444--2-4-|-5-5--5-55555---5-4|-2-2--2--222--4-6-|
E|-----------------|------------------|-------------------|------------------|

G|-----------------|------------------|-------------7-7---|------------------|
D|-----------------|------------------|-------------------|------------------|
A|-7-7--7--777--7-6|-4-4--4--444--2-4-|-5-5--5-55555---5-4|-2-2--2--222--4-6-|
E|-----------------|------------------|-------------------|------------------|

G|-----------------|------------------|-------------7-7---|------------------|
D|-----------------|------------------|-------------------|------------------|
A|-7-7--7--777--7-6|-4-4--4--444--2-4-|-5-5--5-55555---5-4|-2-2--2--222--4-6-|
E|-----------------|------------------|-------------------|------------------|

G|-----------------|------------------|-------------7-7---|------------------|
D|-----------------|------------------|-------------------|------------------|
A|-7-7--7--777--7-6|-4-4--4--444--2-4-|-5-5--5-55555---5-4|-2-2--2--222--4-6-|
E|-----------------|------------------|-------------------|------------------|
               
               S
G|-----------------|
D|-----------------|
A|------7----------|
E|-0-0----0-0--12\-|

[Chorus]

   S  S  S S  S  S     S  S  S  S S       S  S  S  S  S     S S S S  S   S
G|-----------------|------------------|-------------------|------------------|
D|-----------------|------------------|-------------------|------------------|
A|---------0--2--3-|---3----------3~--|---5--2--------5~--|-----7------------|
E|-0--2--3---------|------5--3--0-----|---------5--2------|-0-0---0--0---12\-|


   S  S  S S  S  S     S  S  S  S S       S  S  S  S  S       S S S  S   S
G|-----------------|------------------|-------------------|------------------|
D|-----------------|------------------|-------------------|--------------14~-|
A|---------0--2--3-|---3----------3~--|---5--2--------5~--|-----7------------|
E|-0--2--3---------|------5--3--0-----|---------5--2------|---0---0--0-------|

   S  S  S S  S  S     S  S  S  S S       S  S  S  S  S       S S S  S   S
G|-----------------|------------------|-------------------|------------------|
D|-----------------|------------------|-------------------|------------------|
A|---------0--2--3-|---3----------3~--|---5--2--------5~--|-----7------------|
E|-0--2--3---------|------5--3--0-----|---------5--2------|---0---0--0---12\-|

   S  S  S S  S  S     S  S  S  S S       S  S  S  S  S     
G|-----------------|------------------|-------------------|
D|-----------------|------------------|-------------------|
A|---------0--2--3-|---3----------3~--|---5--2--------5~--|
E|-0--2--3---------|------5--3--0-----|---------5--2------|

[Verse]

G|-----------------|------------------|-------------7-7---|------------------|
D|-----------------|------------------|-------------------|------------------|
A|-7-7--7--777--7-6|-4-4--4--444--2-4-|-5-5--5-55555---5-4|-2-2--2--222--4-6-|
E|-----------------|------------------|-------------------|------------------|

G|-----------------|------------------|-------------7-7---|------------------|
D|-----------------|------------------|-------------------|------------------|
A|-7-7--7--777--7-6|-4-4--4--444--2-4-|-5-5--5-55555---5-4|-2-2--2--222--4-6-|
E|-----------------|------------------|-------------------|------------------|

G|-----------------|------------------|-------------7-7---|------------------|
D|-----------------|------------------|-------------------|------------------|
A|-7-7--7--777--7-6|-4-4--4--444--2-4-|-5-5--5-55555---5-4|-2-2--2--222--4-6-|
E|-----------------|------------------|-------------------|------------------|

G|-----------------|------------------|-------------7-7---|------------------|
D|-----------------|------------------|-------------------|------------------|
A|-7-7--7--777--7-6|-4-4--4--444--2-4-|-5-5--5-55555---5-4|-2-2--2--222--4-6-|
E|-----------------|------------------|-------------------|------------------|
               
               S
G|-----------------|
D|-----------------|
A|------7----------|
E|-0-0----0-0--12\-|

[Verse]

   S  S  S S  S  S                                                       S
G|-----------------|------------------|-------------------|------------------|
D|-----------------|------------------|-------------------|------------------|
A|---------0--2--3-|------------------|-------------------|----------/12-----|
E|-0--2--3---------|------------------|-------------------|--------------12\-|

   S  S  S S  S  S                                                       S
G|-----------------|------------------|-------------------|------------------|
D|-----------------|------------------|-------------------|--------------14~-|
A|---------0--2--3-|------------------|-------------------|------------------|
E|-0--2--3---------|------------------|-------------------|------------------|

   S  S  S S  S  S     S  S  S  S S       S  S  S  S  S       S S S  S   S
G|-----------------|------------------|-------------------|------------------|
D|-----------------|------------------|-------------------|------------------|
A|---------0--2--3-|---3----------3~--|---5--2--------5~--|-----7------------|
E|-0--2--3---------|------5--3--0-----|---------5--2------|---0---0--0---12\-|

   S  S  S S  S  S     S  S  S  S S       S  S  S  S  S       S S S  S   S
G|-----------------|------------------|-------------------|------------------|
D|-----------------|------------------|-------------------|------------------|
A|---------0--2--3-|---3----------3~--|---5--2--------5~--|-----7------------|
E|-0--2--3---------|------5--3--0-----|---------5--2------|---0---0--0---12\-|

[Guitar Solo]

   S   S   S S S S               S  S                S  S                S
G|-----------------|------------------|-------------------|------------------|
D|-----------------|------------------|-------------------|------------------|
A|-----------------|------------------|-------------------|------------------|
E|-0---2---3-2-0-3-|-------------3--2-|--------------2--0-|--------------12\-|

   S   S   S S S S               S  S                S  S                 ^ 
G|-----------------|------------------|-------------------|---------------13-|
D|-----------------|------------------|-------------------|---------------14-|
A|-----------------|------------------|-------------------|------------------|
E|-0---2---3-2-0-3-|-------------3--2-|--------------2--0-|-----------/12----|

[Outro]

   S  S  S S  S  S     S  S  S  S S       S  S  S  S  S       S S S  S    P
G|-----------------|------------------|-------------------|------------11g13-|
D|-----------------|------------------|-------------------|------------------|
A|---------0--2--3-|---3----------3~--|---5--2--------5~--|-----7------------|
E|-0--2--3---------|------5--3--0-----|---------5--2------|---0---0--0-------|

   S  S  S S  S  S     S  S  S  S S       S  S  S  S  S     S S    S  S  S
G|-----------------|------------------|-------------------|------------------|
D|-----------------|------------------|-------------------|------------------|
A|---------0--2--3-|---3----------3~--|---5--2--------5~--|--------7---------|
E|-0--2--3---------|------5--3--0-----|---------5--2------|-0-0-------0--12\-|

   S  S  S S  S  S     S  S  S  S S       S  S  S  S  S     S S S S P S   P
G|-----------------|------------------|-------------------|---------x--11g13~|
D|-----------------|------------------|-------------------|------------------|
A|---------0--2--3-|---3----------3~--|---5--2--------5~--|---7--------------|
E|-0--2--3---------|------5--3--0-----|---------5--2------|-0---0-x---0------|

[Fade out ending]

   S  S  S S  S  S     S  S  S  S S       S  S  S  S  S     S S S S P S    P
G|-----------------|------------------|-------------------|---------x------9-|
D|-----------------|------------------|-------------------|------------------|
A|---------0--2--3-|---3----------3~--|---5--2--------5~--|---7--------------|
E|-0--2--3---------|------5--3--0-----|---------5--2------|-0---0-x---0------|

   |---3---|   
   P          S     S  P S    S  P  S P
G|-11h12p11p9----------9---------9----9-|
D|------------9h11--x-------------------|
A|-----------------------x----x-----x---|
E|--------------------------------------|   



************************************

| ~  Vibrato
| \  Slide down
| /  Slide up
| g  Grace note
| P  Pop
| x  Dead note
| h  Hammer-on
| p  Pull-off
| S  Slap  
| ^  brush up

************************************
Suggest correction
Give kudos to tab author, rate the tab!
1 2 3 4 5
comments
print report bad tab
guest
You may want to rate the tab now too:
select rating
Wanna post a correction for this tab? Suggest correction