Oops, an error
Loading. Please wait.

The Pursuit Of Accidents Tab

494 views 1 this week
no commentswrite comment
1 2 3 4 5
please rate
add to favorites
launch autoscroll
font size
0
reset
how to read this tab
guitar tuner
Autoscroll
slow
fast
+/-
esc
set tempo
stop
Help us to improve Ultimate-Guitar.com Take our survey!
×
The Pursuit of Accidents
Level 42
The Pursuit of Accidents 1982



Transcription starts @ 0:45

|G Dm7| |Gm Dm7| etc.





E|----------------12--------10-----------------|
B|-------12-13-15----13--------11--------------|
G|-12-14----------------14--------12-9-/13-/13-|
D|---------------------------------------------|
A|---------------------------------------------|
E|---------------------------------------------|


E|---------10-------|
B|-8-10/12----------|
G|------------12/14-|
D|------------------|
A|------------------|
E|------------------|


E|----------------12--------10-----------------|
B|-------12-13-15----13--------11--------------|
G|-12-14----------------14--------12-9-/13-/13-|
D|---------------------------------------------|
A|---------------------------------------------|
E|---------------------------------------------|


E|---------10----------------|
B|-8-10/12-------------------|
G|------------12/14-14-12-14-|
D|---------------------------|
A|---------------------------|
E|---------------------------|


Suggest correction
Give kudos to tab author, rate the tab!
1 2 3 4 5
comments
print report bad tab
guest
You may want to rate the tab now too:
select rating
Wanna post a correction for this tab? Suggest correction