Oops, an error
Loading. Please wait.

Tracie Bass Tab

744 views 1 this week
no commentswrite comment
1 2 3 4 5
3 more votes to show rating
add to favorites
launch autoscroll
font size
0
reset
guitar tuner
Autoscroll
slow
fast
+/-
esc
set tempo
stop
Help us to improve Ultimate-Guitar.com Take our survey!
×
Tracie
Level 42
Staring At The Sun 1988


I'm not sure if the bass 
doubles up with the guitar
during those first few bars.  
He probably does it live though.

G|-16-16----16-16-------14-------|
D|----------------16-16----13----|
A|-------14-------------------14-|
E|-------------------------------|

G|--16-16-16-------14-----------------|
D|-----------16-16----16-18-16--------|
A|-----------------------------14-14--|
E|------------------------------------|

G|-16-16----16-16-------14-------|
D|----------------16-16----13----|
A|-------14-------------------14-|
E|-------------------------------|

G|--16-16-16-------14-----------------|
D|-----------16-16----16-18-16--------|
A|-----------------------------14-14--|
E|------------------------------------|

  B
G|-----------------|
D|-----------------|
A|-2-------2-------|
E|---2-4-2---2-4-2-|

G|-------------------|
D|-------------------|
A|-2-2------0--------|
E|------2-2----4-2-0-|

etc,etc.

Suggest correction
Give kudos to tab author, rate the tab!
1 2 3 4 5
comments
print report bad tab
guest
You may want to rate the tab now too:
select rating
Wanna post a correction for this tab? Suggest correction