Oops, an error
Loading. Please wait.

Turn It On Bass Tab

version 1
version 1

Whole song

Interactive

2,314 views 1 this week
no commentswrite comment
1 2 3 4 5
3 more votes to show rating
add to favorites
launch autoscroll
font size
0
reset
guitar tuner
Autoscroll
slow
fast
+/-
esc
set tempo
stop
Help us to improve Ultimate-Guitar.com Take our survey!
×
Turn It On
Level 42
Level 42 1981


C=118 (Approx.)


  Intro/Link/Verse
G|--------|----------------|---------|------------------|
D|*-------|----------------|---------|-----------------*|
A|*-------|---2-2-2--------|---------|-4b-4b-rb-4-2----*|
E|-2----4-|------------0-1-|-2-2-4-4-|--------------0-1-|
        
   
  Chorus
G|--------|------------|---------|------------------|
D|*-------|------------|---------|-----------------*|
A|*-------|---2-2-2----|---------|-4b-4b-rb-4-2----*|
E|-2----4-|------------|-1-2-4---|--------------0-1-|


  Bridge
G|-------------|----------------|---------------|------------|
D|*------------|----------------|---------------|-----------*|
A|*------------|----------------|---------------|------5--4-*|
E|-2-2-0-4-2--2|--2-0-4-2-2-4-5-|--4-2-0--2-4-3-|--2-0-------|
           
Everything else is just variations on the above.  

           




Suggest correction
Give kudos to tab author, rate the tab!
1 2 3 4 5
comments
print report bad tab
guest
You may want to rate the tab now too:
select rating
Wanna post a correction for this tab? Suggest correction