Oops, an error
Loading. Please wait.

I Am Murloc tab

version 2
version 2
87,176 views 18 this week
13 commentsread comments
1 2 3 4 5
x 30
add to favorites
×
Save as Personal and add changes to this tab that will be seen only by you. Learn more ›
×
You can save this tab as Personal to edit and correct it or add notes. All changes will be seen only by you. Learn more »
launch autoscroll
font size
0
reset
how to read this tab
guitar tuner
edit
Autoscroll
slow
fast
+/-
esc
set tempo
stop
Author
Difficulty
intermediate
Artist: Level 70 Elite Tauren Chieftan
Song: I am murloc
Tabbed by: Not me, i'm just putting it online.
Email: andioge@NOSPAMgmail.com

Tuning: Standard

[Intro]
Let all non palm-muted notes ring
                                h                                 h
e|-----------------------------------------------------------------------------|
B|-----------------------------------------------------------------------------|
G|-----------------------------------------------------------------------------|
D|-----2-----0-----3-----2-----0-2--------2-----0-----3-----2-----0-2----------|
A|-----------------------------------------------------------------------------|
E|-0-0-----0-----0-----0-----0-------3-3-----3-----3-----3-----3---------------|
  |---|   |-|   |-|   |-|   |-|     |---|   |-|   |-|   |-|   |----------------|
   PM     PM    PM    PM    PM       PM     PM    PM    PM    PM

                                h                                 h
e|------------------------------------------------------------------------------|
B|------------------------------------------------------------------------------|
G|------------------------------------------------------------------------------|
D|-----2-----0-----3-----2-----0-2--------2-----0-------------------------------|
A|-0-0-----0-----0-----0-----0-----------------------3-----2--------------------|
E|-----------------------------------0-0-----0-----0-----0-----0--3~~~----------|
  |---|   |-|   |-|   |-|   |-|     |---|   |-|   |-|   |-|   |-----------------|
   PM     PM    PM    PM    PM       PM     PM    PM    PM    PM

                                h                                 h
e|------------------------------------------------------------------------------|
B|------------------------------------------------------------------------------|
G|------------------------------------------------------------------------------|
D|-----2-----0-----3-----2-----0-2--------2-----0-----3-----2-----0-2-----------|
A|------------------------------------------------------------------------------|
E|-0-0---0-0---0-0---0-0---0-0-------3-3---3-3---3-3---3-3---3-3----------------|
  |---| |---| |---| |---| |---|     |---| |---| |---| |---| |-------------------|
   PM     PM    PM    PM    PM       PM     PM    PM    PM    PM

                                h                                 h
e|------------------------------------------------------------------------------|
B|------------------------------------------------------------------------------|
G|------------------------------------------------------------------------------|
D|-----2-----0-----3-----2-----0-2--------2-----0-------------------------------|
A|-0-0---0-0---0-0---0-0---0-0-----------------------3-----2--------------------|
E|-----------------------------------0-0---0-0---0-0---0-0---0-0--3~~~----------|
  |---| |---| |---| |---| |---|     |---| |---| |---| |---| |-------------------|
   PM     PM    PM    PM    PM       PM     PM    PM    PM    PM

[Verse]
(starts with words)
(let non palm-muted notes ring)
                                h                                 h
e|-------------------------------------------------------------------------------|
B|-------------------------------------------------------------------------------|
G|-------------------------------------------------------------------------------|
D|-----2-----0-----3-----2-----0-2--------2-----0-----3-----2-----0-2------------|
A|-------------------------------------------------------------------------------|
E|-0-0---0-0---0-0---0-0---0-0-------3-3---3-3---3-3---3-3---3-3-----------------|
  |---| |---| |---| |---| |---|     |---| |---| |---| |---| |--------------------|
   PM     PM    PM    PM    PM       PM     PM    PM    PM    PM

                                h                                 h
e|------------------------------------------------------------------------------|
B|------------------------------------------------------------------------------|
G|------------------------------------------------------------------------------|
D|-----2-----0-----3-----2-----0-2--------2-----0-------------------------------|
A|-0-0---0-0---0-0---0-0---0-0------------------------3-----2-------------------|
E|------------------------------------0-0---0-0---0-0---0-0---0-0--3~~~---------|
  |---| |---| |---| |---| |---|     |---| |---| |---| |---| |-------------------|
   PM     PM    PM    PM    PM       PM     PM    PM    PM    PM

(repeat twice per verse, then)
e|--------------|
B|--------------|
G|--------------|
D|5-------------|
A|5-------------|
E|3-------------|

[Chorus]
e|-----------------------------------------------------------------------------|
B|-----------------------------------------------------------------------------|
G|-----------------------------------------------------------------------------|
D|-2------------2---2-----------------2------------2---2-----3-3--3-3----------|
A|-2------------2---2------------3~~--2------------2---2-----3-3--3-3----------|
E|-0--3--5--3-0-0---0--3--5--3-0------0--3--5--3-0-0---0--3--1-1--1-1----------|
           |---|           |---|              |--------------------------------|
             PM             PM                 PM

(After last chorus, right before solo, do)
e|-------------------------------|
B|-------------------------------|
G|-------------------------------|
D|-3-3--3-3--3-3--3-3--3-3--3-3--|
A|-3-3--3-3--3-3--3-3--3-3--3-3--|
E|-1-1--1-1--1-1--1-1--1-1--1-1--|

[Solo]
e|---------------------------------------------------------------------------|
B|-/5~~~--/5-6--6/8~--8/10~~-10--10-9-10-9-----------------------------------|
G|-----------------------------------------10-9-7-10--9-7--------------------|
D|--------------------------------------------------------10-9-7-10-9-7------|
A|---------------------------------------------------------------------------|
E|---------------------------------------------------------------------------|

e|------------------------------------------------------------------|
B|-----------------------------------------------10-9~~--9-9-9-9----|
G|---------------------------------------9--10----------------------|
D|-6-------------------------9------10------------------------------|
A|---8-7-8-8-8-7~~~---7--7-7----7-7----7----------------------------|
E|------------------------------------------------------------------|

(You can either do the pull-offs as they are written or with tapping, I play it with taps 
I think he does it with pull-offs)
                                                 p  p     p  p     p  p
e|-----------------------------12--12--13--13--16-13-12-16-13-12-16-13-12----|
B|-9-9-10-10-12-12-13-13-15-15-----------------------------------------------|
G|---------------------------------------------------------------------------|
D|---------------------------------------------------------------------------|
A|---------------------------------------------------------------------------|
E|---------------------------------------------------------------------------|

    p  p     p  p     p  p     p  p     p  p     p  p
e|16-13-12-16-13-12-17-16-13-17-16-13-17-16-13-17-16-13--17b19-17b19-17b19r17-17\|
B|-------------------------------------------------------------------------------|
G|-------------------------------------------------------------------------------|
D|-------------------------------------------------------------------------------|
A|-------------------------------------------------------------------------------|
E|-------------------------------------------------------------------------------|

[Bridge]
(The solo ends halfway through the line. This next bit finishes up the line.)
e|-------------------------------|
B|-------------------------------|
G|-9--7-9----9--7--5--4----------|
D|-9--7-9----9--7--5--4----------|
A|-7--7-5----7--5--3--2----------|
E|-------------------------------|

(And this is the next line of the bridge.)
e|-------------------------------------------------------|
B|-------------------------------------------------------|
G|----7-9--ph-------5-10------7-9--ph----9--7--5--4------|
D|-2--7-9--9~~---2--7-10---2--7-9--9~~---9--7--5--4----3-|
A|-2--5-7--------2--5-8----2--5-7--------7--5--3--2----3-|
E|-0-------------0---------0---------------------------1-|

(Raise your flippers to the sky!)

(Now do chorus until the end, and after the last line of chorus do:
(Should be "I Am Murloc!" then)
e|--------------|
B|--------------|
G|--------------|
D|3-3--3-3------|
A|3-3--3-3------|
E|1-1--1-1------|
(then "I am Death.")

(Then the last chord after that is a simple)
e|--------------|
B|--------------|
G|--------------|
D|2-------------|
A|2-------------|
E|0-------------|


************************************

| PM  Palm mute
| ~   Vibrato
| /   Slide up
| r   Release
| b   Bend
| \   Slide down

************************************
Suggest correction
Creating personal tab
Creating personal tab
You can edit any tab online and save it as your Personal.

You can edit, replace or remove any tab part or add personal notes – all changes will be seen only by you.

Personal tabs can be accessed anytime from any device, even offline.
Learn more »
comments
print report bad tab
13 comments total. Showing first comments.
0 reply
Andioje 51 Aug 10, 2007 08:22 AM

i messed up putting the solo in a little, the first line of the solo is one string too high. move the first line down to the second string and it'll be fine.

0 reply
Baraga 130 Apr 30, 2008 03:05 PM

Really good, love this song

0 reply
Baraga 130 May 17, 2008 01:54 PM

Chorus

e|-----------------------------------------------------------------------------|
B|-----------------------------------------------------------------------------|
G|-----------------------------------------------------------------------------|
D|-2------------2---2-----------------2------------2---2-----3-3--3-3----------|
A|-2------------2---2------------3~~--2------------2---2-----3-3--3-3----------|
E|-0--3--5--3-0-0---0--3--5--3-0------0--3--5--3-0-0---0--3--1-1--1-1----------|
|---| |---| |--------------------------------|
PM PM PM

I think that the 3rd freat with vibrato in the A chord should kinda be a pinch harmonic
Ive tryed it on my guitar, and it sounded really well
This is just my opinion, do what you want to do

guest
You may want to rate the tab now too:
select rating
Wanna post a correction for this tab? Suggest correction