Oops, an error
Loading. Please wait.

I Am Murloc tab

version 4
version 4
1,192 views 1 this week
no commentswrite comment
1 2 3 4 5
3 more votes to show rating
add to favorites
×
Save as Personal and add changes to this tab that will be seen only by you. Learn more ›
×
You can save this tab as Personal to edit and correct it or add notes. All changes will be seen only by you. Learn more »
launch autoscroll
font size
0
reset
how to read this tab
guitar tuner
edit
Autoscroll
slow
fast
+/-
esc
set tempo
stop
Author
Difficulty
#----------------------------------PLEASE NOTE---------------------------------#
#This file is the author's own work and represents their interpretation of the #
#song. You may only use this file for private study, scholarship, or research. #
#------------------------------------------------------------------------------##

                                   I AM MURLOC
                 As recorded by Level 70 Elite Tauren Chieftain
                        (From the 2007 Album UDDER CHAOS)

Music by The Former Artists Known as Level 80 Elite Tauren Chieftain
Transcribed by NejiHyuga900

Gtr I (E A D G B E) - 'Bergrisst - Rhythm'
Gtr II (E A D G B E) - 'Sig Nicious - Lead'
Gtr III (E A D G B E) - 'Sig Nicious - Lead (Solo)'

 Intro A
  Q=145
  E5
 4/4
  Gtr I
  PM|     PM       PM       PM      PM
  E E Q   E  E +E  E    Q   E E +E  E E E
|--------------------|--------------------|
|--------------------|--------------------|
|--------------------|--------------------|
|-----2------0-(0)---|--3-----2-(2)---0h2-|
|--------------------|--------------------|
|-0-0-----0--------0-|------0-------0-----|
|
| Gtr II
| PM|
| E E Q  +H            +W
|--------------------|--------------------|
|--------------------|--------------------|
|--------------------|--------------------|
|-----2--(2)---------|-(2)----------------|
|-2-2-2--(2)---------|-(2)----------------|
|-0-0-0--(0)---------|-(0)----------------|


  G5
  PM|     PM       PM       PM      PM
  E E Q   E  E +E  E    Q   E E +E  E E E
|--------------------|---------------------|
|--------------------|---------------------|
|--------------------|---------------------|
|-----2------0-(0)---|--3-----2-(2)---0h2--|
|--------------------|---------------------|
|-3-3-----3--------3-|------3-------3------|
|
| PM|
| E E Q  +H            +W
|--------------------|---------------------|
|--------------------|---------------------|
|--------------------|---------------------|
|-----5--(5)---------|-(5)-----------------|
|-5-5-5--(5)---------|-(5)-----------------|
|-3-3-3--(3)---------|-(3)-----------------|


                       Q=138    Q=140
  A5
  PM|     PM       PM       PM      PM
  E E Q   E  E +E  E    Q   E E +E  E E E
|--------------------|--------------------|
|--------------------|--------------------|
|--------------------|--------------------|
|-----2------0-(0)---|--3-----2-(2)---0h2-|
|-0-0-----0--------0-|------0-------0-----|
|--------------------|--------------------|
|
| PM|
| E E Q  +H            +W
|--------------------|--------------------|
|--------------------|--------------------|
|-----2--(2)---------|-(2)----------------|
|-2-2-2--(2)---------|-(2)----------------|
|-0-0-0--(0)---------|-(0)----------------|
|--------------------|--------------------|


  Q=146                Q=150
  E5
  PM|     PM       PM       PM      PM~
  E E Q   E  E +E  E    Q   E E +E  E Q
|--------------------|-------------------||
|--------------------|-------------------||
|--------------------|-------------------||
|-----2------0-(0)---|-------------------||
|--------------------|--3-----2-(2)------||
|-0-0-----0--------0-|------0-------0-3--||
|
| PM|
| E E Q  +H            +W
|--------------------|-------------------||
|--------------------|-------------------||
|--------------------|-------------------||
|-----2--(2)---------|-(2)---------------||
|-2-2-2--(2)---------|-(2)---------------||
|-0-0-0--(0)---------|-(0)---------------||


 Intro B
  Q=152                               Q=150
                                      G5
  PM|   PM|   PM|     PM|   PM|       PM|   PM--|   PM|     PM|   PM|
  E E E E E E E E   E E E E E E E E   E E E S S E E E E   E E E E E E E E
|-----------------|-----------------|-------------------|------------------|
|-----------------|-----------------|-------------------|------------------|
|-----------------|-----------------|-------------------|------------------|
|-----2-----0-----|-3-----2-----0h2-|-----2-------0-----|-3-----2-----0h2--|
|-----------------|-----------------|-------------------|------------------|
|-0-0---0-0---0-0-|---0-0---0-0-----|-3-3---3-3-3---3-3-|---3-3---3-3------|
|
| PM|   PM|   PM|     PM|   PM|       PM|   PM--|   PM|     PM|   PM|
| E E E E E E E E   E E E E E E Q     E E E E   E E E E   E E E E E E Q
|-----------------|-----------------|-------------------|------------------|
|-----------------|-----------------|-------------------|------------------|
|-----------------|-----------------|-------------------|------------------|
|-----2-----2-----|-2-----2-----2---|-----5-------5-----|-5-----5-----5----|
|-2-2-2-2-2-2-2-2-|-2-2-2-2-2-2-2---|-5-5-5-5---5-5-5-5-|-5-5-5-5-5-5-5----|
|-0-0-0-0-0-0-0-0-|-0-0-0-0-0-0-0---|-3-3-3-3---3-3-3-3-|-3-3-3-3-3-3-3----|


  Q=152
  A5                                  E5
  PM|   PM|   PM|     PM|   PM|       PM|   PM|   PM|     PM|   PM| ~
  E E E E E E E E   E E E E E E E E   E E E E E E E E   E E E E E E Q
|-----------------|-----------------|-----------------|--------------------||
|-----------------|-----------------|-----------------|--------------------||
|-----------------|-----------------|-----------------|--------------------||
|-----2-----0-----|-3-----2-----0h2-|-----2-----0-----|--------------------||
|-0-0---0-0---0-0-|---0-0---0-0-----|-----------------|-3-----2------------||
|-----------------|-----------------|-0-0---0-0---0-0-|---0-0---0-0-3------||
|
| PM|   PM|   PM|     PM|   PM|       PM--|
| E E E E E E E E   E E E E E E Q     E E E E E E E E   E E E E E E E +E
|-----------------|-----------------|-----------------|--------------------||
|-----------------|-----------------|-------------5-5-|-5-5-5-5-5-5--------||
|-----2-----2-----|-2-----2-----2---|-------------4-4-|-4-4-4-4-4-4--------||
|-2-2-2-2-2-2-2-2-|-2-2-2-2-2-2-2---|-------2-2-2-2-2-|-2-2-2-2-2-2-2-(2)\-||
|-0-0-0-0-0-0-0-0-|-0-0-0-0-0-0-0---|-2-2-2-----------|--------------------||
|-----------------|-----------------|-0-0-0-----------|--------------------||


 Verse 1a
  Q=157
  N.C.
  PM|   PM|   PM|       PM|   PM|       PM|   PM|   PM|
  E E E E E E E E     E E E E E E E E   E E E E E E E E
|-----------------||------------------|-----------------|
|-----------------||o-----------------|-----------------|
|-----------------||------------------|-----------------|
|-----2-----0-----||--3-----2-----0h2-|-----2-----0-----|
|-----------------||o-----------------|-----------------|
|-0-0---0-0---0-0-||----0-0---0-0-----|-0-0---0-0---0-0-|
|
|       PM|   PM|       PM|   PM|       PM|   PM|   PM|
| E E E E E E E E     E E E E E E E E   E E E E E E E E
|-----------------||------------------|-----------------|
|-----------------||o-----------------|-----------------|
|-----------------||------------------|-----------------|
|-----2-----0-----||--3-----2-----0h2-|-----2-----0-----|
|-----------------||o-----------------|-----------------|
|-0-0---0-0---0-0-||----0-0---0-0-----|-0-0---0-0---0-0-|


 1.
    PM|   PM|  ~~~   PM|   PM|   PM|
  E E E E E E  Q     E E E E E E E E
|------------------|------------------||
|------------------|-----------------o||
|------------------|------------------||
|-3-----2----------|-----2-----0------||
|--------------5---|-----------------o||
|---0-0---0-0------|-0-0---0-0---0-0--||
|
|   PM|   PM|  ~~~   PM|   PM|   PM|
| E E E E E E  Q     E E E E E E E E
|------------------|------------------||
|------------------|-----------------o||
|------------------|------------------||
|-3-----2----------|-----2-----0------||
|-------------[5]--|-----------------o||
|---0-0---0-0------|-0-0---0-0---0-0--||


                      Verse 1b
  2.                   Q=161
    PM|   PM|  ~~~     PM|   PM|   PM|
  E E E E E E  Q       E E E E E E E E
|------------------||------------------|
|------------------||o-----------------|
|------------------||------------------|
|------------------||------2-----0-----|
|-3-----2----------||o-----------------|
|---0-0---0-0--3---||--0-0---0-0---0-0-|
|
|   PM|   PM|  ~~~     PM|   PM|   PM|
| E E E E E E  Q       E E E E E E E E
|------------------||------------------|
|------------------||o-----------------|
|------------------||------4-----2-----|
|------------------||------------------|
|-3-----2----------||o-----------------|
|---0-0---0-0-[3]--||--0-0---0-0---0-0-|


                                     1.
    PM|   PM|       PM|   PM|   PM|     PM|   PM| ~
  E E E E E E E E   E E E E E E E E   E E E E E E Q
|-----------------|-----------------|-----------------||
|-----------------|-----------------|----------------o||
|-----------------|-----------------|-----------------||
|-3-----2-----0h2-|-----2-----0-----|-3-----2---------||
|-----------------|-----------------|-------------5--o||
|---0-0---0-0-----|-0-0---0-0---0-0-|---0-0---0-0-----||
|
|   PM|   PM|       PM|   PM|   PM|     PM|   PM| ~
| E E E E E E E E   E E E E E E E E   E E E E E E Q
|-----------------|-----------------|-----------------||
|-----------------|-----------------|----------------o||
|-5-----4-----2h4-|-----4-----2-----|-5-----4-----2---||
|-----------------|-----------------|-----------------||
|-----------------|-----------------|----------------o||
|---0-0---0-0-----|-0-0---0-0---0-0-|---0-0---0-0-----||


                      Pre-Chorus 1
  2.                                           Q=180
    PM|    PM-|   PM
  E E E E  E  E E E    W          +W           +W
|-------------------||----------|------------|-------------------||
|-------------------||----------|------------|-------------------||
|-------------------||----------|------------|-------------------||
|-------------------||----------|------------|-------------------||
|-3-----2-----------||----------|------------|-------------------||
|---0-0----0--0-3-3-||-3--------|-(3)--------|-(3)---------------||
|
|   PM|    PM-|   PM
| E E E E  E  E E E    W          +W           +H.      +S  +E.
|-------------------||----------|------------|-------------------||
|-------------------||----------|------------|-------------------||
|-------------------||----------|------------|-------------------||
|-5-----4-<4>-------||----------|------------|-------------------||
|---------------5---||-5--------|-(5)--------|-(5)------(5)-(5)\-||
|---0-0----0--0---0-||----------|------------|-------------------||


 Chorus 1a
  Q=205
  E5   G5     N.C.   E5             G5       N.C.
                 PM|                            PM|  ~~~
  H    H      Q  E E H      +Q   Q  H        Q  E E  H
|-----------|-------------|----------------|---------------|
|-----------|-------------|----------------|---------------|
|-----------|-------------|----------------|---------------|
|-2----5----|--------2----|-(2)--2--5------|---------------|
|-2----5----|-0------2----|-(2)--2--5------|-0-------3-----|
|-0----3----|----3-2-0----|-(0)--0--3------|----3-2--------|
|
|                PM|                   PM|      PM|  ~~~
| H    H      Q  E E H      +Q   Q  Q  E E   Q  E E  H
|-----------|-------------|----------------|---------------|
|-----------|-------------|----------------|---------------|
|-----------|-------------|----------------|--------[5]----|
|-2----5----|--------2----|-(2)--2--5------|---------------|
|-2----5----|-0------2----|-(2)--2--5--5-5-|-0-------------|
|-0----3----|----3-2-0----|-(0)--0--3--3-3-|----3-2--------|


  Q=211
  E5   G5     N.C.   E5             G5 F5
                 PM|
  H    H      Q  E E H      +Q   Q  h        E E Q  E E Q
|-----------|-------------|----------------|---------------||
|-----------|-------------|----------------|---------------||
|-----------|-------------|----------------|---------------||
|-2----5----|--------2----|-(2)--2--5------|-3-3----3-3----||
|-2----5----|-0------2----|-(2)--2--5------|-3-3----3-3----||
|-0----3----|----3-2-0----|-(0)--0--3------|-1-1----1-1----||
|
|                PM|                   PM|
| H    H      Q  E E H      +Q   Q  Q  E E   E E Q  E E Q
|-----------|-------------|----------------|---------------||
|-----------|-------------|----------------|---------------||
|-----------|-------------|----------------|---------------||
|-2----5----|--------2----|-(2)--2--5------|-3-3----3-3----||
|-2----5----|-0------2----|-(2)--2--5--3-3-|-3-3----3-3----||
|-0----3----|----3-2-0----|-(0)--0--3--1-1-|-1-1----1-1----||


 Chorus 1b
  Q=207
  E5   G5     N.C.   E5             G5       N.C.
                 PM|                            PM|  ~~~
  H    H      Q  E E H      +Q   Q  H        Q  E E  H
|-----------|-------------|----------------|---------------|
|-----------|-------------|----------------|---------------|
|-----------|-------------|----------------|---------------|
|-2----5----|--------2----|-(2)--2--5------|---------------|
|-2----5----|-0------2----|-(2)--2--5------|-0-------3-----|
|-0----3----|----3-2-0----|-(0)--0--3------|----3-2--------|
|
|                PM|                   PM|      PM|  ~~~
| H    H      Q  E E H      +Q   Q  Q  E E   Q  E E  H
|-----------|-------------|----------------|---------------|
|-----------|-------------|----------------|---------------|
|-----------|-------------|----------------|---------------|
|-2----5----|--------2----|-(2)--2--5------|---------------|
|-2----5----|-0------2----|-(2)--2--5--5-5-|-0------[3]----|
|-0----3----|----3-2-0----|-(0)--0--3--3-3-|----3-2--------|


  Q=218
  E5   G5     N.C.   E5             G5     F5
                 PM|
  H    H      Q  E E H      +Q   Q  h      E E Q  E E Q
|-----------|-------------|--------------|---------------||
|-----------|-------------|--------------|---------------||
|-----------|-------------|--------------|---------------||
|-2----5----|--------2----|-(2)--2--5----|-3-3----3-3----||
|-2----5----|-0------2----|-(2)--2--5----|-3-3----3-3----||
|-0----3----|----3-2-0----|-(0)--0--3----|-1-1----1-1----||
|
|                PM|
| H    H      Q  E E H      +Q   Q  h      E E Q  E E Q
|-----------|-------------|--------------|---------------||
|-----------|-------------|--------------|---------------||
|-----------|-------------|--------------|---------------||
|-2----5----|--------2----|-(2)--2--5----|-3-3----3-3----||
|-2----5----|-0------2----|-(2)--2--5----|-3-3----3-3----||
|-0----3----|----3-2-0----|-(0)--0--3----|-1-1----1-1----||


 Pre-Verse
  Q=166
  E5
  PM|   PM|     PM|       PM|   PM|
  E E E E  E  E E E    E  E E E E E E E
|-------------------|-------------------|
|-------------------|-------------------|
|-------------------|-------------------|
|-----2-------0-----|--3------2-----0h2-|
|-------------------|-------------------|
|-0-0---0--0----0-0-|-----0-0---0-0-----|
|
| E E Q   +H          +W
|-------------------|-------------------|
|-------------------|-------------------|
|-------------------|-------------------|
|-----2---(2)-------|-(2)---------------|
|-----2---(2)-------|-(2)---------------|
|-0-0-0---(0)-------|-(0)---------------|


  G5
  PM|   PM|     PM|       PM|   PM|
  E E E E  E  E E E    E  E E E E E E E
|-------------------|-------------------|
|-------------------|-------------------|
|-------------------|-------------------|
|-----2-------0-----|--3------2-----0h2-|
|-------------------|-------------------|
|-3-3---3--3----3-3-|-----3-3---3-3-----|
|
| PM|
| E E E E +H          +W
|-------------------|-------------------|
|-------------------|-------------------|
|-------------------|-------------------|
|-----5-5-(5)-------|-(5)---------------|
|-5-5-5-5-(5)-------|-(5)---------------|
|-3-3-3-3-(3)-------|-(3)---------------|


  A5
  PM|   PM|     PM|       PM|   PM|
  E E E E  E  E E E    E  E E E E E E E
|-------------------|-------------------|
|-------------------|-------------------|
|-------------------|-------------------|
|-----2-------0-----|--3------2-----0h2-|
|-0-0---0--0----0-0-|-----0-0---0-0-----|
|-------------------|-------------------|
|
| PM|
| E E Q   +H          +W
|-------------------|-------------------|
|-------------------|-------------------|
|-----2---(2)-------|-(2)---------------|
|-2-2-2---(2)-------|-(2)---------------|
|-0-0-0---(0)-------|-(0)---------------|
|-------------------|-------------------|


  E5
  PM|   PM|   PM|     PM|   PM| ~
  E E E E E E E E   E E E E E E Q
|-----------------|--------------------||
|-----------------|--------------------||
|-----------------|--------------------||
|-----2-----0-----|--------------------||
|-----------------|-3-----2------------||
|-0-0---0-0---0-0-|---0-0---0-0-3------||
|
| PM|
| E E E E E E E E   E E E E E E E +E
|-----------------|--------------------||
|---------5-5-5-5-|-5-5-5-5-5-5--------||
|---------4-4-4-4-|-4-4-4-4-4-4--------||
|-----2-2-2-2-2-2-|-2-2-2-2-2-2-2-(2)\-||
|-2-2-------------|--------------------||
|-0-0-------------|--------------------||


 Verse 1a
  N.C.
  PM|   PM|   PM|       PM|   PM|       PM|   PM|   PM|
  E E E E E E E E     E E E E E E E E   E E E E E E E E
|-----------------||------------------|-----------------|
|-----------------||o-----------------|-----------------|
|-----------------||------------------|-----------------|
|-----2-----0-----||--3-----2-----0h2-|-----2-----0-----|
|-----------------||o-----------------|-----------------|
|-0-0---0-0---0-0-||----0-0---0-0-----|-0-0---0-0---0-0-|
|
|       PM|   PM|       PM|   PM|       PM|   PM|   PM|
| E E E E E E E E     E E E E E E E E   E E E E E E E E
|-----------------||------------------|-----------------|
|-----------------||o-----------------|-----------------|
|-----------------||------------------|-----------------|
|-----2-----0-----||--3-----2-----0h2-|-----2-----0-----|
|-----------------||o-----------------|-----------------|
|-0-0---0-0---0-0-||----0-0---0-0-----|-0-0---0-0---0-0-|


 1.
    PM|   PM|  ~~~   PM|   PM|   PM|
  E E E E E E  Q     E E E E E E E E
|------------------|---------------------||
|------------------|--------------------o||
|------------------|---------------------||
|-3-----2----------|-----2-----0---------||
|--------------5---|--------------------o||
|---0-0---0-0------|-0-0---0-0---0-0-----||
|
|   PM|   PM|  ~~~   PM|   PM|   PM|
| E E E E E E  Q     E E E E E E E E
|------------------|---------------------||
|------------------|--------------------o||
|------------------|---------------------||
|-3-----2----------|-----2-----0---------||
|-------------[5]--|--------------------o||
|---0-0---0-0------|-0-0---0-0---0-0-----||


                     Verse 1b
  2.                  Q=165
    PM|   PM|  ~~~    PM|   PM|   PM|
  E E E E E E  Q      E E E E E E E E
|------------------||-----------------|
|------------------||-----------------|
|------------------||-----------------|
|------------------||-----2-----0-----|
|-3-----2----------||-----------------|
|---0-0---0-0--3---||-0-0---0-0---0-0-|
|
|   PM|   PM|  ~~~    PM|   PM|   PM|
| E E E E E E  Q      E E E E E E E E
|------------------||-----------------|
|------------------||-----------------|
|------------------||-----4-----2-----|
|------------------||-----------------|
|-3-----2----------||-----------------|
|---0-0---0-0-[3]--||-0-0---0-0---0-0-|


    PM|   PM|       PM|   PM|   PM|     PM|   PM|  ~~~
  E E E E E E E E   E E E E E E E E   E E E E E E  Q
|-----------------|-----------------|------------------|
|-----------------|-----------------|------------------|
|-----------------|-----------------|------------------|
|-3-----2-----0h2-|-----2-----0-----|-3-----2----------|
|-----------------|-----------------|--------------5---|
|---0-0---0-0-----|-0-0---0-0---0-0-|---0-0---0-0------|
|
|     PM  PM|       PM|   PM|   PM|     PM|   PM|  ~~~
| Q   E E E E E E   E E E E E E E E   E E E E E E  Q
|-----------------|-----------------|------------------|
|-----------------|-----------------|------------------|
|-5-----4-----2h4-|-----4-----2-----|-5-----4-----[7]--|
|-----------------|-----------------|------------------|
|-----------------|-----------------|------------------|
|-----0---0-0-----|-0-0---0-0---0-0-|---0-0---0-0------|


  PM|   PM|   PM|     PM|   PM|       PM|   PM|   PM|     PM|   PM|   PM
  E E E E E E E E   E E E E E E E E   E E E E E E E E   E E E E E E E E
|-----------------|-----------------|-----------------|-----------------|
|-----------------|-----------------|-----------------|-----------------|
|-----------------|-----------------|-----------------|-----------------|
|-----2-----0-----|-3-----2-----0h2-|-----2-----0-----|-----------------|
|-----------------|-----------------|-----------------|-3-----2---------|
|-0-0---0-0---0-0-|---0-0---0-0-----|-0-0---0-0---0-0-|---0-0---0-0-3-3-|
|
| PM|   PM|   PM|     PM|   PM|       PM|   PM|   PM|     PM|   PM|   PM
| E E E E E E E E   E E E E E E E E   E E E E E E E E   E E E E E E E E
|-----------------|-----------------|-----------------|-----------------|
|-----------------|-----------------|-----------------|-----------------|
|-----4-----2-----|-5-----4-----2h4-|-----4-----2-----|-----------------|
|-----------------|-----------------|-----------------|-5-----4---------|
|-----------------|-----------------|-----------------|-------------5---|
|-0-0---0-0---0-0-|---0-0---0-0-----|-0-0---0-0---0-0-|---0-0---0-0---0-|


 Pre-Chorus 2
  Q=160                                 Q=170
                                6/4
  W          +W                  +W.
|----------|-------------------|-------------------------------||
|----------|-------------------|-------------------------------||
|----------|-------------------|-------------------------------||
|----------|-------------------|-------------------------------||
|----------|-------------------|-------------------------------||
|-3--------|-(3)---------------|-(3)---------------------------||
|
| W          +H.      +S  E.     +H     +Q   +H     +E  +E
|----------|-------------------|-------------------------------||
|----------|-------------------|-------------------------------||
|----------|-------------------|-------------------------------||
|----------|-------------------|-------------------------------||
|-5--------|-(5)------(5)-5b6==|=(5)----(5)--(5)----(5)-(5)r\--||
|----------|-------------------|-------------------------------||


 Chorus 2a
  Q=204
  E5   G5     N.C.   E5             G5       N.C.
 4/4
                 PM|                            PM|  ~~~
  H    H      Q  E E H      +Q   Q  H        Q  E E  H
|-----------|-------------|----------------|---------------|
|-----------|-------------|----------------|---------------|
|-----------|-------------|----------------|---------------|
|-2----5----|--------2----|-(2)--2--5------|---------------|
|-2----5----|-0------2----|-(2)--2--5------|-0-------3-----|
|-0----3----|----3-2-0----|-(0)--0--3------|----3-2--------|
|
|                PM|                   PM|      PM|  ~~~
| H    H      Q  E E H      +Q   Q  Q  E E   Q  E E  H
|-----------|-------------|----------------|---------------|
|-----------|-------------|----------------|---------------|
|-----------|-------------|----------------|---------------|
|-2----5----|--------2----|-(2)--2--5------|---------------|
|-2----5----|-0------2----|-(2)--2--5--5-5-|-0------[3]----|
|-0----3----|----3-2-0----|-(0)--0--3--3-3-|----3-2--------|


  Q=212
  E5   G5     N.C.   E5             G5 F5
                 PM|
  H    H      Q  E E H      +Q   Q  h        E E Q  E E Q
|-----------|-------------|----------------|---------------||
|-----------|-------------|----------------|---------------||
|-----------|-------------|----------------|---------------||
|-2----5----|--------2----|-(2)--2--5------|-3-3----3-3----||
|-2----5----|-0------2----|-(2)--2--5------|-3-3----3-3----||
|-0----3----|----3-2-0----|-(0)--0--3------|-1-1----1-1----||
|
|                PM|                   PM|
| H    H      Q  E E H      +Q   Q  Q  E E   E E Q  E E Q
|-----------|-------------|----------------|---------------||
|-----------|-------------|----------------|---------------||
|-----------|-------------|----------------|---------------||
|-2----5----|--------2----|-(2)--2--5------|-3-3----3-3----||
|-2----5----|-0------2----|-(2)--2--5--3-3-|-3-3----3-3----||
|-0----3----|----3-2-0----|-(0)--0--3--1-1-|-1-1----1-1----||


 Chorus 2b
  Q=209
  E5   G5     N.C.   E5             G5       N.C.
                 PM|                            PM|  ~~~
  H    H      Q  E E H      +Q   Q  H        Q  E E  H
|-----------|-------------|----------------|---------------|
|-----------|-------------|----------------|---------------|
|-----------|-------------|----------------|---------------|
|-2----5----|--------2----|-(2)--2--5------|---------------|
|-2----5----|-0------2----|-(2)--2--5------|-0-------3-----|
|-0----3----|----3-2-0----|-(0)--0--3------|----3-2--------|
|
|                PM|                   PM|      PM|  ~~~
| H    H      Q  E E H      +Q   Q  Q  E E   Q  E E  H
|-----------|-------------|----------------|---------------|
|-----------|-------------|----------------|---------------|
|-----------|-------------|----------------|---------------|
|-2----5----|--------2----|-(2)--2--5------|---------------|
|-2----5----|-0------2----|-(2)--2--5--5-5-|-0------[3]----|
|-0----3----|----3-2-0----|-(0)--0--3--3-3-|----3-2--------|


  Q=216
  E5   G5     N.C.   E5             G5       F5
                 PM|
  H    H      Q  E E H      +Q   Q  h        E E Q  E E Q   4x
|-----------|-------------|--------------||-----------------||
|-----------|-------------|--------------||o---------------o||
|-----------|-------------|--------------||-----------------||
|-2----5----|--------2----|-(2)--2--5----||--3-3----3-3-----||
|-2----5----|-0------2----|-(2)--2--5----||o-3-3----3-3----o||
|-0----3----|----3-2-0----|-(0)--0--3----||--1-1----1-1-----||
|
|                PM|
| H    H      Q  E E H      +Q   Q  h        E E Q  E E Q   4x
|-----------|-------------|--------------||-----------------||
|-----------|-------------|--------------||o---------------o||
|-----------|-------------|--------------||-----------------||
|-2----5----|--------2----|-(2)--2--5----||--3-3----3-3-----||
|-2----5----|-0------2----|-(2)--2--5----||o-3-3----3-3----o||
|-0----3----|----3-2-0----|-(0)--0--3----||--1-1----1-1-----||


 Guitar Solo
  Q=221
  E5        AsuBsus4
  H         Q  Q    +H.       +Q
|-----------------|-----------------|
|-----------------|-----------------|
|-----------7--9--|-(9)-------(9)\--|
|-2---------7--9--|-(9)-------(9)\--|
|-2---------5--7--|-(7)-------(7)\--|
|-0---------5--7--|-(7)-------(7)\--|
|
| Gtr III
|                    ~~~
| S E. +Q   H       +H     Q   Q
|-----------------|-----------------|
|-----------------|-----------------|
|-7s9--(9)--9-----|-(9)----9h=10----|
|-----------------|-----------------|
|-----------------|-----------------|
|-----------------|-----------------|


  E5           Bsus4Csus4
           PM|
   Q       E E Q     Q     +H.          +Q
|-----------------------|----------------------|
|-----------------------|----------------------|
|--------------9----10--|-(10)---------(10)\---|
|--2-------2-2-9----10--|-(10)---------(10)\---|
|--2-------2-2-7-----8--|--(8)----------(8)\---|
|--0-------0-0-7-----8--|--(8)----------(8)\---|
|
|                    ~~~~~~~~~~
|  E  +E   Q   E. S  Q     +H      Q.        E
|-----------------------|----------------------|
|--------------8--8s10--|-(10)----10-----------|
|-10-(10)s12------------|----------------------|
|-----------------------|----------------------|
|-----------------------|----------------------|
|-----------------------|----------------------|


  E5         Asus4Bsus4
           PM
   Q.      E  Q   Q      +H         H
|----------------------|---------------------|
|----------------------|---------------------|
|-------------7---9----|-(9)--------9--------|
|--2-------2--7---9----|-(9)--------9--------|
|--2-------2--5---7----|-(7)-----------------|
|--0-------0--5---7----|-(7)-----------------|
|
|                                 PM|    PM|
|  E  E  E E  E E E  E    E  E  E E E  E E E
|----------------------|---------------------|
|-10--9-10-9-----------|---------------------|
|------------10-9-7-10-|--9--7---------------|
|----------------------|-------10-9-7-10-9-7-|
|----------------------|---------------------|
|----------------------|---------------------|


  E5      D5        C5       N.C.
      PM|     PM|        PM|
  Q   E E Q   E E    Q   E E S S E E E
|-----------------|---------------------|
|-----------------|---------------------|
|-9---9-9-7---7-7-|--5---5-5------------|
|-9---9-9-7---7-7-|--5---5-5------------|
|-7---7-7-5---5-5-|--3---3-3-0h2p0------|
|-----------------|----------------3-3--|
|
|                    ~~~           PM|
| E E E E E E Q     +H       E   E E E
|-----------------|---------------------|
|-----------------|---------------------|
|-----------------|---------------------|
|-7---------------|---------------------|
|---8-7h8-7h8-7---|-(7)------7s==2-2-2--|
|-----------------|---------------------|


  E5     AsuBsus4          E5                 BsuCsus4
  H      Q  Q     +H       Q  +Q       H      Q   Q
|---------------|--------------------|-----------------|
|---------------|--------------------|-----------------|
|--------7--9---|-(9)------9--(9)\---|--------9--10----|
|-2------7--9---|-(9)------9--(9)\---|-2------9--10----|
|-2------5--7---|-(7)------7--(7)\---|-2------7--------|
|-0------5--7---|--------------------|-0------7--------|
|
|    PM|    PM|        PM|     PM--|
| Q  E E Q  E E    Q   E E Q   E   E   Q  E E Q   Q
|---------------|--------------------|--------5---4b5r=|
|---------------|----------5---------|-6--x-x----------|
|--------4------|--5-----------2---2-|-----------------|
|-2--2-2----2-2-|------2-2-----------|-----------------|
|---------------|--------------------|-----------------|
|---------------|--------------------|-----------------|


   +H                         Q    +Q
|------------------------------------------|
|------------------------------------------|
|-(10)-----------------------10---(10)\----|
|-(10)-----------------------10---(10)\----|
|------------------------------------------|
|------------------------------------------|
|
|                         ~~~
|  +E     +S  +S     +S  +E.  E E   E   E
|--(4)b5==(4)r(4)b5==(4)r(4)---------------|
|-----------------------------9-9---9---9--|
|------------------------------------------|
|------------------------------------------|
|------------------------------------------|
|------------------------------------------|


  E5        AsusBsus4                       E5
       PM|                                   PM---|
  Q    E  E Q   Q     +H               Q     E    E
|-------------------|----------------------------------|
|-------------------|----------------------------------|
|-----------7---9---|-(9)--------------9-----9----9----|
|-2----2--2-7---9---|-(9)--------------9-----9----9----|
|-2----2--2-5---7---|-(7)--------------------7----7----|
|-0----0--0-5---7---|----------------------------------|
|
|                      |--3---|  |3-|        |---3---|
| E E  E  E E E E E    E   E  E  Q  E  E  E  E  E    E
|-----------7-7-8-8-|-10--10-10-12-12-13-13-16-13---12-|
|-9-9-10-10---------|----------------------------------|
|-------------------|----------------------------------|
|-------------------|----------------------------------|
|-------------------|----------------------------------|
|-------------------|----------------------------------|


                                            Q=230
                      D5                    C5                  N.C.
            PM---|              PM---|                PM---|
   Q        E    E     Q        E    E       Q        E    E     S S    E    Q
|-----------------------------------------|-------------------------------------||
|-----------------------------------------|-------------------------------------||
|--9--------9----9-----7--------7----7----|--5--------5----5--------------------||
|--9--------9----9-----7--------7----7----|--5--------5----5--------------------||
|--7--------7----7-----5--------5----5----|--3--------3----3-----0h2p===0-------||
|-----------------------------------------|----------------------------------3--||
|
|  |--3--|  |---3---|  |--3--|  |---3---|    |--3--|  |---3---|  |----3----|
|  E  E  E  E  E    E  E  E  E  E  E    E    E  E  E  E  E    E  E    E    E Q
|-16-13-12-16-13---12-16-13-12-16-13---12-|-17-15-13-17-15---13-17---15---13----||
|-----------------------------------------|----------------------------------x--||
|-----------------------------------------|-------------------------------------||
|-----------------------------------------|-------------------------------------||
|-----------------------------------------|-------------------------------------||
|-----------------------------------------|-------------------------------------||


 Verse 3
  Q=221
  E5             Asus4        Bsus4
   H              Q            Q             +W
|-----------------------------------------|----------------------------|
|-----------------------------------------|----------------------------|
|-----------------7------------9----------|--(9)-----------------------|
|--2--------------7------------9----------|--(9)-----------------------|
|--2--------------5------------7----------|--(7)-----------------------|
|--0--------------5------------7----------|--(7)-----------------------|
|
|  Q       +Q     S      +E.   S      +E.    +H       S      +E.  +Q
|-17b19===(17)r--17b19==(17)r-17b19==(17)-|-(17)r----17b19==(17)-(17)--|
|-----------------------------------------|----------------------------|
|-----------------------------------------|----------------------------|
|-----------------------------------------|----------------------------|
|-----------------------------------------|----------------------------|
|-----------------------------------------|----------------------------|


  E5          Bsus4     Csus4
    H           Q        Q     +W
|---------------------------|-------------------------------|
|---------------------------|-------------------------------|
|---------------9-------10--|-(10)--------------------------|
|---2-----------9-------10--|-(10)--------------------------|
|---2-----------7--------8--|--(8)--------------------------|
|---0-----------7--------8--|--(8)--------------------------|
|
|                        ~~~~~~~~~~
|  +Q    +Q    +Q        Q     +Q    +E       +E   +Q   Q
|-(17)--(17)r=(17)pb18r=17--|-(17)--(17)b19==(17)r(17)------|
|---------------------------|-------------------------------|
|---------------------------|-------------------------------|
|---------------------------|-------------------------------|
|---------------------------|-------------------------------|
|---------------------------|---------------------------x\--|


  E5     AsuBsus4                E5     D5       C5     N.C.
                                    PM|    PM|      PM|
  H      Q  Q    +W              Q  E E Q  E E   Q  E E S S E Q
|--------------|---------------|---------------|-------------------|
|--------------|---------------|---------------|-------------------|
|--------7--9--|-(9)-----------|-9--9-9-7--7-7-|-5--5-5------------|
|-2------7--9--|-(9)-----------|-9--9-9-7--7-7-|-5--5-5------------|
|-2------5--7--|-(7)-----------|-7--7-7-5--5-5-|-3--3-3-0h2p0------|
|-0------5--7--|-(7)-----------|---------------|--------------3----|
|
| Gtr II
|    PM|                   PM|      PM|    PM|      PM|
| Q  E E Q  Q    +H     Q  E E   Q  E E Q  E E   Q  E E S S E E E
|--------------|---------------|---------------|-------------------|
|--------------|---------------|---------------|-------------------|
|--------7--9--|-(9)----9--9-9-|-9--9-9-7--7-7-|-5--5-5------------|
|-2--2-2-7--9--|-(9)----9--9-9-|-9--9-9-7--7-7-|-5--5-5------------|
|-2--2-2-5--7--|-(7)----7--7-7-|-7--7-7-5--5-5-|-3--3-3-0h2p0------|
|-0--0-0-------|---------------|---------------|--------------3-3--|


  E5     AsuBsus4                 E5     BsuCsus4
  H      Q  Q    +W               H      Q   Q     +W
|--------------|----------------|---------------|----------------|
|--------------|----------------|---------------|----------------|
|--------7--9--|-(9)------------|--------9--10--|-(10)-----------|
|-2------7--9--|-(9)------------|-2------9--10--|-(10)-----------|
|-2------5--7--|-(7)------------|-2------7---8--|--(8)-----------|
|-0------5--7--|-(7)------------|-0------7---8--|--(8)-----------|
|
|    PM|                  ~~~        PM|                    ~~
| Q  E E Q  Q    +Q   Q   H       Q  E E Q   Q     +Q   Q   H
|--------------|----------------|---------------|----------------|
|--------------|----------------|---------------|----------------|
|--------7--9--|-(9)--7--[9]----|--------9--10--|-(10)--9--10----|
|-2--2-2-7--9--|-(9)--7---------|-2--2-2-9--10--|-(10)--9--------|
|-2--2-2-5--7--|-(7)--7---------|-2--2-2-7---8--|--(8)--8--------|
|-0--0-0-------|----------------|-0--0-0--------|----------------|


  E5     AsuBsus4                 E5     D5       C5     N.C.
                                     PM|    PM|      PM|
  H      Q  Q    +W               Q  E E Q  E E   Q  E E S S E Q
|--------------|----------------|---------------|-------------------||
|--------------|----------------|---------------|-------------------||
|--------7--9--|-(9)------------|-9--9-9-7--7-7-|-5--5-5------------||
|-2------7--9--|-(9)------------|-9--9-9-7--7-7-|-5--5-5------------||
|-2------5--7--|-(7)------------|-7--7-7-5--5-5-|-3--3-3-0h2p0------||
|-0------5--7--|-(7)------------|---------------|--------------3----||
|
|    PM|                  ~~~        PM|    PM|      PM|
| Q  E E Q  Q    +Q   Q   H       Q  E E Q  E E   Q  E E S S E E E
|--------------|----------------|---------------|-------------------||
|--------------|----------------|---------------|-------------------||
|--------7--9--|-(9)--7--[9]----|-4--9-9-7--7-7-|-5--5-5------------||
|-2--2-2-7--9--|-(9)--7---------|-2--9-9-7--7-7-|-5--5-5------------||
|-2--2-2-5--7--|-(7)--7---------|-2--7-7-5--5-5-|-3--3-3-0h2p0------||
|-0--0-0-------|----------------|-0-------------|--------------3-3--||


 Pre-Chorus 3
  Q=212
  F
  W                 +W             +W          4x +W
|-----------------|------------||--------------||--------||
|-----------------|------------||o------------o||--------||
|-2---------------|-(2)--------||--(2)---------||-(2)----||
|-3---------------|-(3)--------||--(3)---------||-(3)----||
|-3---------------|-(3)--------||o-(3)--------o||-(3)----||
|-1---------------|-(1)--------||--(1)---------||-(1)----||
|
| E E +Q   +H       +W             +W          4x +W
|-----------------|------------||--------------||--------||
|-----------------|------------||o------------o||--------||
|-2-2-(2)--(2)----|-(2)--------||--(2)---------||-(2)----||
|-3-3-(3)--(3)----|-(3)--------||--(3)---------||-(3)----||
|-3-3-(3)--(3)----|-(3)--------||o-(3)--------o||-(3)----||
|-1-1-(1)--(1)----|-(1)--------||--(1)---------||-(1)----||


 Chorus 3a
  E5   G5     N.C.   E5             G5       N.C.
                 PM|                            PM|  ~~~
  H    H      Q  E E H      +Q   Q  H        Q  E E  H
|-----------|-------------|----------------|---------------|
|-----------|-------------|----------------|---------------|
|-----------|-------------|----------------|---------------|
|-2----5----|--------2----|-(2)--2--5------|---------------|
|-2----5----|-0------2----|-(2)--2--5------|-0-------3-----|
|-0----3----|----3-2-0----|-(0)--0--3------|----3-2--------|
|
|                PM|                   PM|      PM|  ~~~
| H    H      Q  E E H      +Q   Q  Q  E E   Q  E E  H
|-----------|-------------|----------------|---------------|
|-----------|-------------|----------------|---------------|
|-----------|-------------|----------------|---------------|
|-2----5----|--------2----|-(2)--2--5------|---------------|
|-2----5----|-0------2----|-(2)--2--5--5-5-|-0------[3]----|
|-0----3----|----3-2-0----|-(0)--0--3--3-3-|----3-2--------|


  E5   G      N.C.   E5             G5 F5
                 PM|
  H    H      Q  E E H      +Q   Q  h        E E Q  E E Q
|-----------|-------------|----------------|---------------||
|-----------|-------------|----------------|---------------||
|-----------|-------------|----------------|---------------||
|-2----5----|--------2----|-(2)--2--5------|-3-3----3-3----||
|-2----5----|-0------2----|-(2)--2--5------|-3-3----3-3----||
|-0----3----|----3-2-0----|-(0)--0--3------|-1-1----1-1----||
|
|                PM|                   PM|
| H    H      Q  E E H      +Q   Q  Q  E E   E E Q  E E Q
|-----------|-------------|----------------|---------------||
|-----------|-------------|----------------|---------------||
|------4----|-------------|----------------|---------------||
|-2----5----|--------2----|-(2)--2--5------|-3-3----3-3----||
|-2----5----|-0------2----|-(2)--2--5--3-3-|-3-3----3-3----||
|-0----3----|----3-2-0----|-(0)--0--3--1-1-|-1-1----1-1----||


 Chorus 3b
  E5   G5     N.C.   E5             G5       N.C.
                 PM|                            PM|  ~~~
  H    H      Q  E E H      +Q   Q  H        Q  E E  H
|-----------|-------------|----------------|---------------|
|-----------|-------------|----------------|---------------|
|-----------|-------------|----------------|---------------|
|-2----5----|--------2----|-(2)--2--5------|---------------|
|-2----5----|-0------2----|-(2)--2--5------|-0-------3-----|
|-0----3----|----3-2-0----|-(0)--0--3------|----3-2--------|
|
|                PM|                   PM|      PM|  ~~~
| H    H      Q  E E H      +Q   Q  Q  E E   Q  E E  H
|-----------|-------------|----------------|---------------|
|-----------|-------------|----------------|---------------|
|-----------|-------------|----------------|---------------|
|-2----5----|--------2----|-(2)--2--5------|---------------|
|-2----5----|-0------2----|-(2)--2--5--5-5-|-0------[3]----|
|-0----3----|----3-2-0----|-(0)--0--3--3-3-|----3-2--------|


                                             Q=220
  E5   G      N.C.   E5             G5       F5
                 PM|
  H    H      Q  E E H      +Q   Q  h        E E Q  E E Q
|-----------|-------------|--------------||-----------------||
|-----------|-------------|--------------||o---------------o||
|-----------|-------------|--------------||-----------------||
|-2----5----|--------2----|-(2)--2--5----||--3-3----3-3-----||
|-2----5----|-0------2----|-(2)--2--5----||o-3-3----3-3----o||
|-0----3----|----3-2-0----|-(0)--0--3----||--1-1----1-1-----||
|
|                PM|
| H    H      Q  E E H      +Q   Q  h        E E Q  E E Q
|-----------|-------------|--------------||-----------------||
|-----------|-------------|--------------||o---------------o||
|------4----|-------------|--------------||-----------------||
|-2----5----|--------2----|-(2)--2--5----||--3-3----3-3-----||
|-2----5----|-0------2----|-(2)--2--5----||o-3-3----3-3----o||
|-0----3----|----3-2-0----|-(0)--0--3----||--1-1----1-1-----||


 Outro
  Q=207
            E5
  W             W          +W           +W           +W           +W
|-------------|----------|------------|------------|------------|--------*|
|-------------|----------|------------|------------|------------|--------*|
|-------------|----------|------------|------------|------------|--------*|
|-------------|-2--------|-(2)--------|-(2)--------|-(2)--------|-(2)----*|
|-------------|-2--------|-(2)--------|-(2)--------|-(2)--------|-(2)----*|
|-------------|-0--------|-(0)--------|-(0)--------|-(0)--------|-(0)----*|
|
| H..       E   W          +W           +W           +W           +W
|-------------|----------|------------|------------|------------|--------*|
|-------------|----------|------------|------------|------------|--------*|
|-------------|----------|------------|------------|------------|--------*|
|-----------2-|-2--------|-(2)--------|-(2)--------|-(2)--------|-(2)----*|
|-----------2-|-2--------|-(2)--------|-(2)--------|-(2)--------|-(2)----*|
|-----------0-|-0--------|-(0)--------|-(0)--------|-(0)--------|-(0)----*|


Duration Legend
---------------
W - whole; H - half; Q - quarter; E - 8th; S - 16th; T - 32nd; X - 64th; a - acciaccatura
+ - note tied to previous; . - note dotted; .. - note double dotted
Uncapitalized letters represent notes that are staccato (1/2 duration)
Irregular groupings are notated above the duration line
Duration letters will always appear directly above the note/fret number it represents the
duration for.  Duration letters with no fret number below them represent rests.  Multi-
bar rests are notated in the form Wxn, where n is the number of bars to rest for.  Low
melody durations appear below the staff

Tablature Legend
----------------
 h   - hammer-on
 p   - pull-off
 b   - bend
 pb  - pre-bend
 r   - bend release (if no number after the r, then release immediately)
 /\  - slide into or out of (from/to "nowhere")
 s   - legato slide
 S   - shift slide
  - natural harmonic
[n]  - artificial harmonic
n(n) - tapped harmonic
 ~   - vibrato
 tr  - trill
 T   - tap
 TP  - trem. picking
 PM  - palm muting
\n/  - tremolo bar dip; n = amount to dip
 \n  - tremolo bar down
 n/  - tremolo bar up
/n\  - tremolo bar inverted dip
 =   - hold bend; also acts as connecting device for hammers/pulls
 <>  - volume swell (louder/softer)
 x   - on rhythm slash represents muted slash
 o   - on rhythm slash represents single note slash

Misc Legend
-----------
 |  - bar
||  - double bar
||o - repeat start
o|| - repeat end
*|  - double bar (ending)
 :  - bar (freetime)
 $  - Segno
 &  - Coda
Tempo markers -  = BPM(8/16=s8/s16), where s8 = swing 8ths, s16 = swing 16ths


***************************************************************************************
* Generated using Power Tab Editor by Brad Larsen - http://powertab.guitarnetwork.org *
***************************************************************************************
Suggest correction
Creating personal tab
Creating personal tab
You can edit any tab online and save it as your Personal.

You can edit, replace or remove any tab part or add personal notes – all changes will be seen only by you.

Personal tabs can be accessed anytime from any device, even offline.
Learn more »
Give kudos to tab author, rate the tab!
1 2 3 4 5
comments
print report bad tab
guest
You may want to rate the tab now too:
select rating
Wanna post a correction for this tab? Suggest correction