Oops, an error
Loading. Please wait.

More Than Ever People Bass

43 views 3 this week
no commentswrite comment
1 2 3 4 5
3 more votes to show rating
add to favorites
launch autoscroll
font size
0
reset
guitar tuner
×
Best way to learn
"More Than Ever People"
Autoscroll
slow
fast
+/-
esc
set tempo
stop
Author
Difficulty
About this tab version
The version in standard tuning. Was this info helpful? Yes No
This plays continually from the very beginning to the very end; no pauses or variations

G|------5---3-5-------------------|
D|---5----5-------3-----------3---|
A|3--------------3--3---3--3-5--3-|
E|--------------------1-----------|

You could also play it like this

G|--------------------------------------|
D|-------10-----8-10--------------------|
A|---10------10--------8------------8---|
E|8-------------------8--8-1-8--8-10--8-|
Suggest correction
Give kudos to tab author, rate the tab!
1 2 3 4 5
comments
print report bad tab
guest
You may want to rate the tab now too:
select rating
Wanna post a correction for this tab? Suggest correction