Oops, an error
Loading. Please wait.

More Than Ever People Bass Tab

7 views 1 this week
no commentswrite comment
1 2 3 4 5
3 more votes to show rating
add to favorites
launch autoscroll
font size
0
reset
guitar tuner
Autoscroll
slow
fast
+/-
esc
set tempo
stop
Help us to improve Ultimate-Guitar.com Take our survey!
×
Author
Difficulty
Tuning
novice
C G C F A D
About this tab version
It's in drop c tuning so that you can play that super low c. Was this info helpful? Yes No
Tune your bass to drop c tuning for this (CADG)
It's disputed as to whether drop c is CADG or CGDG or CGCF. However, in this case, we're only dropping c thus
CADG.

G|--------------------------------------------|
D|--------10----8-10--------------------------|
A|----10-----10---------8----------------8----|
C|12------------------12--12-0--12--12-14--12-|

For those that don't want to retune, play this

G|---------------------------------------|
D|-------10----8-10----------------------|
A|---10-----10--------8-------------8----|
E|8------------------8--8-8--8--8-10---8-|
Suggest correction
Give kudos to tab author, rate the tab!
1 2 3 4 5
comments
print report bad tab
guest
You may want to rate the tab now too:
select rating
Wanna post a correction for this tab? Suggest correction