Oops, an error
Loading. Please wait.

When The Night Arrives chords

4 views 1 this week
no commentswrite comment
1 2 3 4 5
3 more votes to show rating
add to favorites
×
Save as Personal and add changes to this tab that will be seen only by you. Learn more ›
×
You can save this tab as Personal to edit and correct it or add notes. All changes will be seen only by you. Learn more »
launch autoscroll
font size
0
reset
transpose
0
reset
display chords
guitar tuner
edit
Autoscroll
slow
fast
+/-
esc
set tempo
stop
Strumming Is this strumming pattern correct? Yes No
Verses 140 bpm
1
 
 
2
 
 
3
 
 
Listen
Levitation Room - When The Night Arrives

[Intro bass 2x]
G|------11-911--------9----------------|
D|-----11--------911---9--79-79--7--9--|
A|-9-----------------------------------|
E|-------------------------------------|

[Main guitar riff 4x]
   F#m     E          B       A
e|-------------------------------------|
B|------7-57---------5-----------------|
G|-----6---------46---4---24-24--2--4--|
D|-4-----------------------------------|
A|-------------------------------------|
E|-------------------------------------|

[Verse 1]
    F#m  E      B       A
the moon climbs through the
F#m  E   B   A
clouds
   F#m     E        B       A
as my thoughts come pouring
F#m  E   B   A
down

        F#m   E  B    A
and the veils of night
    F#m  E   B    A
withdraw the light
    F#m E     B   A
but I   don't mind
   F#m  E     B   A
no I    don't mind

[Main guitar riff 2x]
   F#m     E          B       A
e|-------------------------------------|
B|------7-57---------5-----------------|
G|-----6---------46---4---24-24--2--4--|
D|-4-----------------------------------|
A|-------------------------------------|
E|-------------------------------------|

[Verse 2]
         F#m  E  B     A
when the sun has closed out the
F#m  E   B   A
day
   F#m  E     B     A
my conscience floats
 F#m  E   B   A
away

       F#m   E  B    A
oh the hands of time
     F#m  E B   A
fall far  behind
    F#m E     B   A
but I   don't mind
   F#m  E     B   A
no I    don't mind
C#

[Chorus]
    F#m          B            F#m          B
The dreams of my eyes and the moon in the sky
    C#
has arrived
    F#m          B            F#m          B
The dreams of my eyes and the moon in the sky
    C#
has arrived

[Main guitar riff 4x]
   F#m     E          B       A
e|-------------------------------------|
B|------7-57---------5-----------------|
G|-----6---------46---4---24-24--2--4--|
D|-4-----------------------------------|
A|-------------------------------------|
E|-------------------------------------|

[Verse 3]
F#m  E   B  A
As   the sun makes it's
F#m  E   B   A
way
F#m  E  B     A
Does it end or start the
F#m  E   B   A
day?
         F#m    E   B   A
When the shades of night
  F#m  E   B   A
return to light
  F#m   E  B   A
I close my eyes
  F#m   E  B   A
I close my eyes!
C#

[Outro chorus]
    F#m          B            F#m          B
The dreams of my eyes and the moon in the sky
    C#
has arrived
    F#m          B            F#m          B
The dreams of my eyes and the moon in the sky
    C#
has arrived
    F#m         B       F#m        B
The sun and the sky has blinded my eyes
       C#
when I rise
    F#m          B            F#m          B
The dreams of my eyes and the moon in the sky
    C#
has arrived

            
            
Suggest correction
Creating personal tab
Creating personal tab
You can edit any tab online and save it as your Personal.

You can edit, replace or remove any tab part or add personal notes – all changes will be seen only by you.

Personal tabs can be accessed anytime from any device, even offline.
Learn more »
Give kudos to tab author, rate the tab!
1 2 3 4 5
comments
print report bad tab
guest
You may want to rate the tab now too:
select rating
Wanna post a correction for this tab? Suggest correction