Oops, an error
Loading. Please wait.

Funk You tab

10 views 1 this week
no commentswrite comment
1 2 3 4 5
3 more votes to show rating
add to favorites
×
Save as Personal and add changes to this tab that will be seen only by you. Learn more ›
×
You can save this tab as Personal to edit and correct it or add notes. All changes will be seen only by you. Learn more »
launch autoscroll
font size
0
reset
how to read this tab
guitar tuner
edit
Autoscroll
slow
fast
+/-
esc
set tempo
stop
Author
Difficulty
[Intro]
e|-12-12-x-12-12-x-12-12-x-15-15-15-15-12-12-x-12-12-x-12-12-x-15-15-15-15-|
B|-12-12-x-12-12-x-12-12-x-12-12-12-12-12-12-x-12-12-x-12-12-x-12-12-12-12-|
G|-12-12-x-12-12-x-12-12-x-12-12-12-12-12-12-x-12-12-x-12-12-x-12-12-12-12-|
D|-------------------------------------------------------------------------|
A|-------------------------------------------------------------------------|
E|-------------------------------------------------------------------------|

e|-12-12-x-12-12-x-12-12-x-15-15-15-15-12-12-x-12-12-x-12-12-x-15-15-15-15-|
B|-12-12-x-12-12-x-12-12-x-12-12-12-12-12-12-x-12-12-x-12-12-x-12-12-12-12-|
G|-12-12-x-12-12-x-12-12-x-12-12-12-12-12-12-x-12-12-x-12-12-x-12-12-12-12-|
D|-------------------------------------------------------------------------|
A|-------------------------------------------------------------------------|
E|-------------------------------------------------------------------------|

[Chorus]
e|--------------------------------------------------------|
B|-5-x--x--5-x--x--5-x--x--5-x--x--5-5-5-5-4-4-4----3-3-3-|
G|-5-x--x--5-x--x--5-x--x--5-x--x--5-5-5-5-4-4-4----3-3-3-|
D|-5-x--x--5-x--x--5-x--x--5-x--x--4-4-4-4-3-3-3----3-3-3-|
A|-3-x--x--3-x--x--3-x--x--3-x--x--5-5-5-5-4-4-4-x--1-1-1-|
E|--------------------------------------------------------|

e|-----------------------------------------------|
B|-5-x-x-5-x-x-5-x-x-5-x-x-5-5-5-5-4-4-4---3-3-3-|
G|-5-x-x-5-x-x-5-x-x-5-x-x-5-5-5-5-4-4-4---3-3-3-|
D|-5-x-x-5-x-x-5-x-x-5-x-x-4-4-4-4-3-3-3---3-3-3-|
A|-3-x-x-3-x-x-3-x-x-3-x-x-5-5-5-5-4-4-4-x-1-1-1-|
E|-----------------------------------------------|

e|-----------------------------------------------|
B|-5-x-x-5-x-x-5-x-x-5-x-x-5-5-5-5-4-4-4---3-3-3-|
G|-5-x-x-5-x-x-5-x-x-5-x-x-5-5-5-5-4-4-4---3-3-3-|
D|-5-x-x-5-x-x-5-x-x-5-x-x-4-4-4-4-3-3-3---3-3-3-|
A|-3-x-x-3-x-x-3-x-x-3-x-x-5-5-5-5-4-4-4-x-1-1-1-|
E|-----------------------------------------------|

e|------------------------------------------------|
B|-5-x-x-5-x-x-5-x-x-5-x-x-5-5-5-5-4-4-4---3-3-3--|
G|-5-x-x-5-x-x-5-x-x-5-x-x-5-5-5-5-4-4-4---3-3-3--|
D|-5-x-x-5-x-x-5-x-x-5-x-x-4-4-4-4-3-3-3---3-3-3--|
A|-3-x-x-3-x-x-3-x-x-3-x-x-5-5-5-5-4-4-4-x-1-1-1--|
E|------------------------------------------------|

[Verse]
e|---------------------------------------------------------------|
B|-7-x--x--7-x--x--7-x--x--7-x--x--14-14-14-14-17-17-17-17-17-17-|
G|-7-x--x--7-x--x--7-x--x--7-x--x--14-14-14-14-17-17-17-17-17-17-|
D|-7-x--x--7-x--x--7-x--x--7-x--x--14-14-14-14-17-17-17-17-17-17-|
A|-5-x--x--5-x--x--5-x--x--5-x--x--12-12-12-12-15-15-15-15-15-15-|
E|---------------------------------------------------------------|

e|---------------------------------------------------------------|
B|-7-x--x--7-x--x--7-x--x--7-x--x--14-14-14-14-17-17-17-19-19-19-|
G|-7-x--x--7-x--x--7-x--x--7-x--x--14-14-14-14-17-17-17-19-19-19-|
D|-7-x--x--7-x--x--7-x--x--7-x--x--14-14-14-14-17-17-17-19-19-19-|
A|-5-x--x--5-x--x--5-x--x--5-x--x--12-12-12-12-15-15-15-17-17-17-|
E|---------------------------------------------------------------|

e|---------------------------------------------------------------|
B|-7-x--x--7-x--x--7-x--x--7-x--x--14-14-14-14-17-17-17-17-17-17-|
G|-7-x--x--7-x--x--7-x--x--7-x--x--14-14-14-14-17-17-17-17-17-17-|
D|-7-x--x--7-x--x--7-x--x--7-x--x--14-14-14-14-17-17-17-17-17-17-|
A|-5-x--x--5-x--x--5-x--x--5-x--x--12-12-12-12-15-15-15-15-15-15-|
E|---------------------------------------------------------------|

e|----------------------------------------------------------------|
B|-7-x---x--7-x--x--7-x--x--7-x--x--14-14-14-14-17-17-17-19-19-19-|
G|-7-x---x--7-x--x--7-x--x--7-x--x--14-14-14-14-17-17-17-19-19-19-|
D|-7-x---x--7-x--x--7-x--x--7-x--x--14-14-14-14-17-17-17-19-19-19-|
A|-5-x---x--5-x--x--5-x--x--5-x--x--12-12-12-12-15-15-15-17-17-17-|
E|----------------------------------------------------------------|

[Chorus]
e|--------------------------------------------------------|
B|-5-x--x--5-x--x--5-x--x--5-x--x--5-5-5-5-4-4-4----3-3-3-|
G|-5-x--x--5-x--x--5-x--x--5-x--x--5-5-5-5-4-4-4----3-3-3-|
D|-5-x--x--5-x--x--5-x--x--5-x--x--4-4-4-4-3-3-3----3-3-3-|
A|-3-x--x--3-x--x--3-x--x--3-x--x--5-5-5-5-4-4-4-x--1-1-1-|
E|--------------------------------------------------------|

e|--------------------------------------------------------|
B|-5-x--x--5-x--x--5-x--x--5-x--x--5-5-5-5-4-4-4----3-3-3-|
G|-5-x--x--5-x--x--5-x--x--5-x--x--5-5-5-5-4-4-4----3-3-3-|
D|-5-x--x--5-x--x--5-x--x--5-x--x--4-4-4-4-3-3-3----3-3-3-|
A|-3-x--x--3-x--x--3-x--x--3-x--x--5-5-5-5-4-4-4-x--1-1-1-|
E|--------------------------------------------------------|

e|--------------------------------------------------------|
B|-5-x--x--5-x--x--5-x--x--5-x--x--5-5-5-5-4-4-4----3-3-3-|
G|-5-x--x--5-x--x--5-x--x--5-x--x--5-5-5-5-4-4-4----3-3-3-|
D|-5-x--x--5-x--x--5-x--x--5-x--x--4-4-4-4-3-3-3----3-3-3-|
A|-3-x--x--3-x--x--3-x--x--3-x--x--5-5-5-5-4-4-4-x--1-1-1-|
E|--------------------------------------------------------|

e|--------------------------------------------------------|
B|-5-x--x--5-x--x--5-x--x--5-x--x--5-5-5-5-4-4-4----3-3-3-|
G|-5-x--x--5-x--x--5-x--x--5-x--x--5-5-5-5-4-4-4----3-3-3-|
D|-5-x--x--5-x--x--5-x--x--5-x--x--4-4-4-4-3-3-3----3-3-3-|
A|-3-x--x--3-x--x--3-x--x--3-x--x--5-5-5-5-4-4-4-x--1-1-1-|
E|--------------------------------------------------------|

[Verse]
e|---------------------------------------------------------------|
B|-7-x--x--7-x--x--7-x--x--7-x--x--14-14-14-14-17-17-17-17-17-17-|
G|-7-x--x--7-x--x--7-x--x--7-x--x--14-14-14-14-17-17-17-17-17-17-|
D|-7-x--x--7-x--x--7-x--x--7-x--x--14-14-14-14-17-17-17-17-17-17-|
A|-5-x--x--5-x--x--5-x--x--5-x--x--12-12-12-12-15-15-15-15-15-15-|
E|---------------------------------------------------------------|

e|---------------------------------------------------------------|
B|-7-x--x--7-x--x--7-x--x--7-x--x--14-14-14-14-17-17-17-19-19-19-|
G|-7-x--x--7-x--x--7-x--x--7-x--x--14-14-14-14-17-17-17-19-19-19-|
D|-7-x--x--7-x--x--7-x--x--7-x--x--14-14-14-14-17-17-17-19-19-19-|
A|-5-x--x--5-x--x--5-x--x--5-x--x--12-12-12-12-15-15-15-17-17-17-|
E|---------------------------------------------------------------|

e|---------------------------------------------------------------|
B|-7-x--x--7-x--x--7-x--x--7-x--x--14-14-14-14-17-17-17-17-17-17-|
G|-7-x--x--7-x--x--7-x--x--7-x--x--14-14-14-14-17-17-17-17-17-17-|
D|-7-x--x--7-x--x--7-x--x--7-x--x--14-14-14-14-17-17-17-17-17-17-|
A|-5-x--x--5-x--x--5-x--x--5-x--x--12-12-12-12-15-15-15-15-15-15-|
E|---------------------------------------------------------------|

e|---------------------------------------------------------------|
B|-7-x--x--7-x--x--7-x--x--7-x--x--14-14-14-14-17-17-17-19-19-19-|
G|-7-x--x--7-x--x--7-x--x--7-x--x--14-14-14-14-17-17-17-19-19-19-|
D|-7-x--x--7-x--x--7-x--x--7-x--x--14-14-14-14-17-17-17-19-19-19-|
A|-5-x--x--5-x--x--5-x--x--5-x--x--12-12-12-12-15-15-15-17-17-17-|
E|---------------------------------------------------------------|

[Solo Chords]

   let ring
e|------------------------------|
B|-5------5-x--x--5-5-x--x--4-4-|
G|-5------5-x--x--5-5-x--x--4-4-|
D|-5------5-x--x--4-4-x--x--3-3-|
A|-3------3-x--x--5-5-x--x--4-4-|
E|------------------------------|

e|------------------------------|
B|-5------5-x--x--5-5-x--x--4-4-|
G|-5------5-x--x--5-5-x--x--4-4-|
D|-5------5-x--x--4-4-x--x--3-3-|
A|-3------3-x--x--5-5-x--x--4-4-|
E|------------------------------|

e|------------------------------|
B|-5------5-x--x--5-5-x--x--4-4-|
G|-5------5-x--x--5-5-x--x--4-4-|
D|-5------5-x--x--4-4-x--x--3-3-|
A|-3------3-x--x--5-5-x--x--4-4-|
E|------------------------------|

e|-----------------------------------|
B|-5------5-x---x---5-5-x---x---4-4--|
G|-5------5-x---x---5-5-x---x---4-4--|
D|-5------5-x---x---4-4-x---x---3-3--|
A|-3------3-x---x---5-5-x---x---4-4--|
E|-----------------------------------|

[Outro]
e|--------------------------------------------------------|
B|-5-x--x--5-x--x--5-x--x--5-x--x--5-5-5-5-4-4-4----3-3-3-|
G|-5-x--x--5-x--x--5-x--x--5-x--x--5-5-5-5-4-4-4----3-3-3-|
D|-5-x--x--5-x--x--5-x--x--5-x--x--4-4-4-4-3-3-3----3-3-3-|
A|-3-x--x--3-x--x--3-x--x--3-x--x--5-5-5-5-4-4-4-x--1-1-1-|
E|--------------------------------------------------------|

e|--------------------------------------------------------|
B|-5-x--x--5-x--x--5-x--x--5-x--x--5-5-5-5-4-4-4----3-3-3-|
G|-5-x--x--5-x--x--5-x--x--5-x--x--5-5-5-5-4-4-4----3-3-3-|
D|-5-x--x--5-x--x--5-x--x--5-x--x--4-4-4-4-3-3-3----3-3-3-|
A|-3-x--x--3-x--x--3-x--x--3-x--x--5-5-5-5-4-4-4-x--1-1-1-|
E|--------------------------------------------------------|

e|--------------------------------------------------------|
B|-5-x--x--5-x--x--5-x--x--5-x--x--5-5-5-5-4-4-4----3-3-3-|
G|-5-x--x--5-x--x--5-x--x--5-x--x--5-5-5-5-4-4-4----3-3-3-|
D|-5-x--x--5-x--x--5-x--x--5-x--x--4-4-4-4-3-3-3----3-3-3-|
A|-3-x--x--3-x--x--3-x--x--3-x--x--5-5-5-5-4-4-4-x--1-1-1-|
E|--------------------------------------------------------|

e|--------------------------------------------------------|
B|-5-x--x--5-x--x--5-x--x--5-x--x--5-5-5-5-4-4-4----3-3-3-|
G|-5-x--x--5-x--x--5-x--x--5-x--x--5-5-5-5-4-4-4----3-3-3-|
D|-5-x--x--5-x--x--5-x--x--5-x--x--4-4-4-4-3-3-3----3-3-3-|
A|-3-x--x--3-x--x--3-x--x--3-x--x--5-5-5-5-4-4-4-x--1-1-1-|
E|--------------------------------------------------------|

e|--------------------------------------------------------|
B|-5-x--x--5-x--x--5-x--x--5-x--x--5-5-5-5-4-4-4----3-3-3-|
G|-5-x--x--5-x--x--5-x--x--5-x--x--5-5-5-5-4-4-4----3-3-3-|
D|-5-x--x--5-x--x--5-x--x--5-x--x--4-4-4-4-3-3-3----3-3-3-|
A|-3-x--x--3-x--x--3-x--x--3-x--x--5-5-5-5-4-4-4-x--1-1-1-|
E|--------------------------------------------------------|

e|--------------------------------------------------------|
B|-5-x--x--5-x--x--5-x--x--5-x--x--5-5-5-5-4-4-4----3-3-3-|
G|-5-x--x--5-x--x--5-x--x--5-x--x--5-5-5-5-4-4-4----3-3-3-|
D|-5-x--x--5-x--x--5-x--x--5-x--x--4-4-4-4-3-3-3----3-3-3-|
A|-3-x--x--3-x--x--3-x--x--3-x--x--5-5-5-5-4-4-4-x--1-1-1-|
E|--------------------------------------------------------|

e|--------------------------------------------------------|
B|-5-x--x--5-x--x--5-x--x--5-x--x--5-5-5-5-4-4-4----3-3-3-|
G|-5-x--x--5-x--x--5-x--x--5-x--x--5-5-5-5-4-4-4----3-3-3-|
D|-5-x--x--5-x--x--5-x--x--5-x--x--4-4-4-4-3-3-3----3-3-3-|
A|-3-x--x--3-x--x--3-x--x--3-x--x--5-5-5-5-4-4-4-x--1-1-1-|
E|--------------------------------------------------------|

e|--------------------------------------------------------|
B|-5-x--x--5-x--x--5-x--x--5-x--x--5-5-5-5-4-4-4----3-3-3-|
G|-5-x--x--5-x--x--5-x--x--5-x--x--5-5-5-5-4-4-4----3-3-3-|
D|-5-x--x--5-x--x--5-x--x--5-x--x--4-4-4-4-3-3-3----3-3-3-|
A|-3-x--x--3-x--x--3-x--x--3-x--x--5-5-5-5-4-4-4-x--1-1-1-|
E|--------------------------------------------------------|



************************************

| x  Dead note

************************************

            
            
Suggest correction
Creating personal tab
Creating personal tab
You can edit any tab online and save it as your Personal.

You can edit, replace or remove any tab part or add personal notes – all changes will be seen only by you.

Personal tabs can be accessed anytime from any device, even offline.
Learn more »
Give kudos to tab author, rate the tab!
1 2 3 4 5
comments
print report bad tab
guest
You may want to rate the tab now too:
select rating
Wanna post a correction for this tab? Suggest correction