Oops, an error
Loading. Please wait.

Loudy Tab

version 1
version 1

Whole song

205 views 15 this week
no commentswrite comment
1 2 3 4 5
1 last vote to show rating
add to favorites
launch autoscroll
font size
0
reset
how to read this tab
guitar tuner
Autoscroll
slow
fast
+/-
esc
set tempo
stop
Help us to improve Ultimate-Guitar.com Take our survey!
×
Author
[Intro]

e|----------------------------------------------------------------------------|
B|----------------------------------------------------------------------------|
G|------------------------5s2-------------------------------------------------| 
D|----------------7--7----7s3-------------------------------------------------|   
A|----5---5--5-8--------------------------------------------------------------|
E|----------------------------------------------------------------------------|(x2)

[Break]

[Verse/Intro] 
Background Guitar (This is the synth, but can be played on guitar)

e|----------------------------------------------------------------------------|
B|----------------------------------------------------------------------------|
G|----------7-7------7-7-------7-7--------7-7---------------------------------|(played during both the intro
D|----------------------------------------------------------------------------| and the verse, listen for
A|----------------------------------------------------------------------------| specifics)
E|----------------------------------------------------------------------------|

[Pre-Chorus]

e|----------------5-----------------------------------------------------------|
B|-------6--8--6-----8--6-8-6-------------------------------------------------|
G|----7-----------------------------------------------------------------------| 
D|----------------------------------------------------------------------------|
A|----------------------------------------------------------------------------|
E|----------------------------------------------------------------------------|

[Chorus] 

(the part in the parentheses is the synth part)
e|----------------------------------------------------------------------------|
B|----------6s1---------6s1-------6s1-------6s1-------------------------------|
G|----------7s2---------7s2-------7s2-------7s2-------------------------------| 
D|----------------------------------------------------------------------------|   
A|--(5-5-5)-----(3-3-3)-------------------------------------------------------|
E|------------------------(3-3-3)---(1-1-1)-----------------------------------|(x4)

[Intro]

e|----------------------------------------------------------------------------|
B|----------------------------------------------------------------------------|
G|------------------------5s2-------------------------------------------------| 
D|----------------7--7----7s3-------------------------------------------------|
A|----5---5--5-8--------------------------------------------------------------|
E|----------------------------------------------------------------------------|(x4)

[Break]

[Chorus]

e|----------------------------------------------------------------------------|
B|----------6s1---------6s1-------6s1-------6s1-------------------------------|
G|----------7s2---------7s2-------7s2-------7s2-------------------------------| 
D|----------------------------------------------------------------------------|   
A|--(5-5-5)-----(3-3-3)-------------------------------------------------------|
E|------------------------(3-3-3)---(1-1-1)-----------------------------------|(x4)

[Verse]

e|----------------------------------------------------------------------------|
B|----------------------------------------------------------------------------|
G|----------7-7------7-7-------7-7--------7-7---------------------------------|
D|----------------------------------------------------------------------------|
A|----------------------------------------------------------------------------|
E|----------------------------------------------------------------------------|

[Bridge/Pre-Chorus]

(only played once for prechorus) 
With a d-minor piano in the background for the Bridge
e|----------------5-----------------------------------------------------------|
B|-------6--8--6-----8--6-8-6-------------------------------------------------|
G|----7-----------------------------------------------------------------------| 
D|----------------------------------------------------------------------------|   
A|----------------------------------------------------------------------------|
E|----------------------------------------------------------------------------|(x5)


[Chorus]

e|----------------------------------------------------------------------------|
B|----------6s1---------6s1-------6s1-------6s1-------------------------------|
G|----------7s2---------7s2-------7s2-------7s2-------------------------------| 
D|----------------------------------------------------------------------------|   
A|--(5-5-5)-----(3-3-3)-------------------------------------------------------|
E|------------------------(3-3-3)---(1-1-1)-----------------------------------|(x8)



************************************

| s slide

************************************
Suggest correction
Give kudos to tab author, rate the tab!
1 2 3 4 5
comments
print report bad tab
guest
You may want to rate the tab now too:
select rating
Wanna post a correction for this tab? Suggest correction