Oops, an error
Loading. Please wait.

Malt Liquor tab

version 1
version 1

Whole song

  • Easy to read with chords and lyrics included. Base... Show more
169 views 9 this week
2 commentsread comments
1 2 3 4 5
x 3
add to favorites
×
Save as Personal and add changes to this tab that will be seen only by you. Learn more ›
×
You can save this tab as Personal to edit and correct it or add notes. All changes will be seen only by you. Learn more »
launch autoscroll
font size
0
reset
how to read this tab
guitar tuner
edit
Autoscroll
slow
fast
+/-
esc
set tempo
stop
Tabbed by ear, so no guarantees.
I made some attempt to line up vocals under tabs to help with timing (it helps me).

[Verse 1]
e|----------|
B|----------|
G|----------|
D|----------|
A|-3-3-3-3--|
E|----------| (x8)

   C#m                 F#m      D#         G#         D#         G#
e|----------|     e|-------------------------------------------------------|
B|----------|     B|-------------------------------------------------------|
G|----------|     G|-------------------------------------------------------|
D|----------|     D|-------6---------5-----------10---------5-----------10-|
A|-3-3-3-3--|     A|-3/8-8---8-8\6-6---6-6/11-11----11\6-6----6-6/11-11----|
E|----------| (x3)E|-------------------------------------------------------|
The party's sideways once again                           mmm malt liquor    
  
   C#m                 F#m      D#         G#         D#         G#
e|----------|     e|-------------------------------------------------------|
B|----------|     B|-------------------------------------------------------|
G|----------|     G|-------------------------------------------------------|
D|----------|     D|-------6---------5-----------10---------5-----------10-|
A|-3-3-3-3--|     A|-3/8-8---8-8\6-6---6-6/11-11----11\6-6----6-6/11-11----|
E|----------| (x3)E|-------------------------------------------------------|
Smiling sideways to my friends                            But we're all getting sicker

   C#m                 F#m      D#         G#         D#         G#
e|----------|     e|-------------------------------------------------------|
B|----------|     B|-------------------------------------------------------|
G|----------|     G|-------------------------------------------------------|
D|----------|     D|-------6---------5-----------10---------5-----------10-|
A|-3-3-3-3--|     A|-3/8-8---8-8\6-6---6-6/11-11----11\6-6----6-6/11-11----|
E|----------| (x3)E|-------------------------------------------------------|
The party's alive at 5am                                        But who's counting?

   C#m                 F#m      D#         G#         D#         G#
e|----------|     e|-------------------------------------------------------|
B|----------|     B|-------------------------------------------------------|
G|----------|     G|-------------------------------------------------------|
D|----------|     D|-------6---------5-----------10---------------------10-|
A|-3-3-3-3--|     A|-3/8-8---8-8\6-6---6-6/11-11---------------------------|
E|----------| (x3)E|-------------------------------------------------------|
Dance around like skeletons                          Cuz we forgot what we wanted

[Pre-Chorus]
     C#m                             G#
e|----3------------------------------4-----------------------------------------|
B|----4------------------------------4-----------------------------------------|
G|----5------------------------------5-----------------------------------------|
D|----5------------------------------6-----------------------------------------|
A|----3------------------------------6-----------------------------------------|
E|-----------------------------------4-----------------------------------------| (x2)

     C#m                             G#
e|----3------------------------------4-----------------------------------------|
B|----4------------------------------4-----------------------------------------|
G|----5------------------------------5-----------------------------------------|
D|----5------------------------------6-----------------------------------------|
A|----3------------------------------6-----------------------------------------|
E|-----------------------------------4-----------------------------------------|
       And it always seems the same    I know I know, I know we do

     C#m                             G#
e|----3------------------------------4-----------------------------------------|
B|----4------------------------------4-----------------------------------------|
G|----5------------------------------5-----------------------------------------|
D|----5------------------------------6-----------------------------------------|
A|----3------------------------------6-----------------------------------------|
E|-----------------------------------4-----------------------------------------|
       And we almost go insane         I know I know, I know it's true

     C#m                             G#
e|----3------------------------------4-----------------------------------------|
B|----4------------------------------4-----------------------------------------|
G|----5------------------------------5-----------------------------------------|
D|----5------------------------------6-----------------------------------------|
A|----3------------------------------6-----------------------------------------|
E|-----------------------------------4-----------------------------------------|
        And it always seems the same    I know I know, I know we do

     F#m                            G#
e|----8------------------------------4-----------------------------------------|
B|----9------------------------------4-----------------------------------------|
G|----10-----------------------------5-----------------------------------------|
D|----10-----------------------------6-----------------------------------------|
A|----8------------------------------6-----------------------------------------|
E|-----------------------------------4--------------------- -------------------|
         And we almost go insane         Trying to chase     Some pleasure brand new

[Chorus]
(Actual guitar doesn't do much, I suggest playing chords indicated throughout.)
   C#m        C#m       C#m       F#m        D#        G#         D#        G#
e|-----------------------------------------------------------------------------------|
B|-----------------------------------------------------------------------------------|
G|-----------------------------------------------------------------------------------|
D|-----------------------------------------------------------------------------------|
A|-----------------------------------------------------------------------------------|
E|-----------------------------------------------------------------------------------| (silence) (x2) 

   C#m        C#m       C#m       F#m        D#        G#         D#        G#
e|-----------------------------------------------------------------------------------|
B|-----------------------------------------------------------------------------------|
G|-----------------------------------------------------------------------------------|
D|-----------------------------------------------------------------------------------|
A|-----------------------------------3-3-3---------------3-3-3-----------------3-3-3-|
E|-----------------------------------------------------------------------------------| (x2)

[Verse 2]
e|----------|
B|----------|
G|----------|
D|----------|
A|-3-3-3-3--|
E|----------| (x4)

   C#m                 F#m      D#         G#         D#         G#
e|----------|     e|-------------------------------------------------------|
B|----------|     B|-------------------------------------------------------|
G|----------|     G|-------------------------------------------------------|
D|----------|     D|-------6---------5-----------10---------5-----------10-|
A|-3-3-3-3--|     A|-3/8-8---8-8\6-6---6-6/11-11----11\6-6----6-6/11-11----|
E|----------| (x3)E|-------------------------------------------------------|
The morning's tie-dyed once again                        High in the kitchen 
   
   C#m                 F#m      D#         G#         D#         G#
e|----------|     e|-------------------------------------------------------|
B|----------|     B|-------------------------------------------------------|
G|----------|     G|-------------------------------------------------------|
D|----------|     D|-------6---------5-----------10---------------------10-|
A|-3-3-3-3--|     A|-3/8-8---8-8\6-6---6-6/11-11---------------------------|
E|----------| (x3)E|-------------------------------------------------------|
Some mornings I wish I'd grow out of this                  Feels like it ain't my decision 

[Interlude]
     C#m                             G#
e|----3------------------------------4-----------------------------------------|
B|----4------------------------------4-----------------------------------------|
G|----5------------------------------5-----------------------------------------|
D|----5------------------------------6-----------------------------------------|
A|----3------------------------------6-----------------------------------------|
E|-----------------------------------4-----------------------------------------|
            Coz I never learned to tell you no                      no I never learned

     C#m                             G#
e|----3------------------------------4-----------------------------------------|
B|----4------------------------------4-----------------------------------------|
G|----5------------------------------5-----------------------------------------|
D|----5------------------------------6-----------------------------------------|
A|----3------------------------------6-----------------------------------------|
E|-----------------------------------4-----------------------------------------|
             oh I never learned to tell you no     oh   and I never learned to tell you no

     F#m                            G#
e|----8------------------------------4-----------------------------------------|
B|----9------------------------------4-----------------------------------------|
G|----10-----------------------------5-----------------------------------------|
D|----10-----------------------------6-----------------------------------------|
A|----8------------------------------6-----------------------------------------|
E|-----------------------------------4--------------------- -------------------|
            oh I never learned to tell you no         oh  I never learned to tell you no  

     F#m             D#              G#
e|----8--------------6----------------4-----------------------------------------|
B|----9--------------8----------------4-----------------------------------------|
G|----10-------------8----------------5-----------------------------------------|
D|----10-------------8----------------6-----------------------------------------|
A|----8--------------6----------------6-----------------------------------------|
E|------------------------------------4--------------------- -------------------|
       and I never learned to tell you no      no 

[Pre-Chorus 2]
   C#m                 F#m      D#         G#         D#         G#
e|----------|     e|-------------------------------------------------------|
B|----------|     B|-------------------------------------------------------|
G|----------|     G|-------------------------------------------------------|
D|----------|     D|-------6---------5-----------10---------5-----------10-|
A|-3-3-3-3--|     A|-3/8-8---8-8\6-6---6-6/11-11----11\6-6----6-6/11-11----|
E|----------| (x3)E|-------------------------------------------------------|

   C#m                 F#m      D#         G#         D#         G#
e|----------|     e|-------------------------------------------------------|
B|----------|     B|-------------------------------------------------------|
G|----------|     G|-------------------------------------------------------|
D|----------|     D|-------6---------5-----------10---------5-----------10-|
A|-3-3-3-3--|     A|-3/8-8---8-8\6-6---6-6/11-11----11\6-6----6-6/11-11----|
E|----------| (x3)E|-------------------------------------------------------|

   C#m                 F#m      D#         G#         D#         G#
e|----------|     e|-------------------------------------------------------|
B|----------|     B|-------------------------------------------------------|
G|----------|     G|-------------------------------------------------------|
D|----------|     D|-------6---------5-----------10---------5-----------10-|
A|-3-3-3-3--|     A|-3/8-8---8-8\6-6---6-6/11-11----11\6-6----6-6/11-11----|
E|----------| (x3)E|-------------------------------------------------------|
       And it always seems the same            I know I know, I know we do

   C#m                 F#m      D#         G#         D#         G#
e|----------|     e|-------------------------------------------------------|
B|----------|     B|-------------------------------------------------------|
G|----------|     G|-------------------------------------------------------|
D|----------|     D|-------6---------5-----------10---------5-----------10-|
A|-3-3-3-3--|     A|-3/8-8---8-8\6-6---6-6/11-11----11\6-6----6-6/11-11----|
E|----------| (x3)E|-------------------------------------------------------|
       And we almost go insane               I know I know, I know it's true

   C#m                 F#m      D#         G#         D#         G#
e|----------|     e|-------------------------------------------------------|
B|----------|     B|-------------------------------------------------------|
G|----------|     G|-------------------------------------------------------|
D|----------|     D|-------6---------5-----------10---------5-----------10-|
A|-3-3-3-3--|     A|-3/8-8---8-8\6-6---6-6/11-11----11\6-6----6-6/11-11----|
E|----------| (x3)E|-------------------------------------------------------| 
       And it always seems the same           I know I know, I know we do

   C#m                 F#m      D#         G#         D#         G#
e|----------|     e|-------------------------------------------------------|
B|----------|     B|-------------------------------------------------------|
G|----------|     G|-------------------------------------------------------|
D|----------|     D|-------6---------5-----------10---------------------10-|
A|-3-3-3-3--|     A|-3/8-8---8-8\6-6---6-6/11-11---------------------------|
E|----------| (x3)E|-------------------------------------------------------| 
         And we almost go insane          Trying to chase Some pleasure brand new

[Chorus]
   C#m        C#m       C#m       F#m        D#        G#         D#        G#
e|-----------------------------------------------------------------------------------|
B|-----------------------------------------------------------------------------------|
G|-----------------------------------------------------------------------------------|
D|-----------------------------------------------------------------------------------|
A|-----------------------------------------------------------------------------------|
E|-----------------------------------------------------------------------------------| (silence) x4

or 

C#m C#m C#m F#m D# D# D# D# (Static chords played during final Chorus)


************************************

|   /   Slide up
|   \   Slide down

************************************

            
            
Suggest correction
Creating personal tab
Creating personal tab
You can edit any tab online and save it as your Personal.

You can edit, replace or remove any tab part or add personal notes – all changes will be seen only by you.

Personal tabs can be accessed anytime from any device, even offline.
Learn more »
Give kudos to tab author, rate the tab!
1 2 3 4 5
comments
print report bad tab
2 comments total.
0 reply
gkazuakix 186 Aug 13, 2017 07:52 PM

it's Cm instead of C#m

props to you tho

0 reply
tylerfurniss 31 Aug 23, 2017 07:32 PM

easy to read and follow

guest
You may want to rate the tab now too:
select rating
Wanna post a correction for this tab? Suggest correction