Oops, an error
Loading. Please wait.

Waves Chords

442 views 24 this week
1 commentread comment
1 2 3 4 5
1 last vote to show rating
add to favorites
launch autoscroll
font size
0
reset
transpose
0
reset
display chords
guitar tuner
Autoscroll
slow
fast
+/-
esc
set tempo
stop
Help us to improve Ultimate-Guitar.com Take our survey!
×
Author
Difficulty
intermediate
About this tab version
This is learnt by ear so I'm not sure if it's accurate but it sounds like it. Was this info helpful? Yes No
Tabbed by ear - cover is on https://www.youtube.com/watch?v=v799Qhd4q64

 [Intro]

E|-----12--0--7--5--3--0--3--5-----5-----12--0--7--5--3--0--3--5-----5--|
B|------------------------------4---------------------------------4-----|
G|----------------------------------------------------------------------|
D|----------------------------------------------------------------------|
A|----------------------------------------------------------------------|
E|--0---------------------------------0---------------------------------|

Em
The night we broke out
Em
Neighborhood penitentiary
Em
We drove to the coast and
Em
Laughed for a century

Em       G
You sunk your feet
       A
In the empty beach
         A
And took off all your clothes

Em                    G
Said "I'm never going home now
A
Who's gonna tell me no"

[Pre Chorus]
Em               G
Freedom ain't it frightening
A
Like swimming in the lightening
           Em
Deadly but delighting
                 G
Lips against the sky now
A
So bold


[Chorus]
You told me
Em                G
"It always tastes good
     A
When I choose it for myself
Em                      G
When there's fire in my woods
         A
It burns me and nobody else
Em            G
I know I fuck up
       A
But as long as I show up
Em                 G
It'll always taste good"
A
Hmmmmm....

E|-----12--0--7--5--3--0--3--5-----5-----|
B|------------------------------4--------|
G|---------------------------------------|
D|---------------------------------------|
A|---------------------------------------|
E|--0---------------------------------0--|

(same as the rest)
Suggest correction
Give kudos to tab author, rate the tab!
1 2 3 4 5
comments
print report bad tab
1 comment total.
0 reply
andreshgarcia18 10 Nov 09, 2016 04:02 AM, edited at 04:04 am

I kinda hear Em>D>G>Am. But unsure.

guest
You may want to rate the tab now too:
select rating
Wanna post a correction for this tab? Suggest correction