Oops, an error
Loading. Please wait.

3 Tab

6,199 views 18 this week
no commentswrite comment
1 2 3 4 5
excellent!
x 8
add to favorites
launch autoscroll
font size
0
reset
how to read this tab
guitar tuner
Tab Pro tools
  • play this tab
  • loop segment
  • change instrument
  • show fretboard
  • metronome
×
Best way to learn
"3"
Autoscroll
slow
fast
+/-
esc
set tempo
stop
Contributor
Difficulty
Capo
novice
2nd fret
-----------------------------------------------------------------------------
                             3# - Lewis Watson
-----------------------------------------------------------------------------
Tabbed by:Jacob colgan
E-mail:J.Colgan@musician.org

Tuning:EADGBe
Capo: 2nd

Intro:
   e      
E-----------------------------------------------------------------|
B-----------------------------------------------------------------|
G--1------2------4-------6-------2--------------------------------|
D--2------4------6-------7-------4--------------------------------|
A--2------4------6-------7-------4--------------------------------|
E-----------------------------------------------------------------|

   e
E-----------------------------------------------------------------|
B-----------------------------------------------------------------|
G--1------4-------6-------8-------2-------------------------------|
D--2------6-------7-------9-------4-------------------------------|
A--2------6-------7-------9-------4-------------------------------|
E-----------------------------------------------------------------|

Chorus
     A     C#m     E
E--5------4-------------------------------------------------------|
B--5------5-------9------------9------------9------------9--------|
G--6------6--------------9------------9------------9--------------|
D--7------6-------------------------------------------------------|
A--7------4-------7---7---7---7---7---7---7---7---7---7-----------|
E--5--------------------------------------------------------------|

Bridge:
     A      E     C#m     E       A
E--5------7------4-------7------5------|
B--5------7------5-------7------5------|
G--6------8------6-------8------6------|
D--7------9------6-------9------7------|
A--7------9------4-------9------7------|
E--5------7------x-------7------5------|


   C#m     E      A
E--4-------7------5------|
B--5-------7------5------|
G--6-------8------6------|
D--6-------9------7------|
A--4-------9------7------|
E--x-------7------5------|

Thats about it i hope this tab was helpfull :)
comments
print report bad tab
I want to post or [tab]
guest
You may want to rate the tab now too:
select rating
Please do not post tabs as comments. Select "correction" instead!