Oops, an error
Loading. Please wait.

Little Light tab

13,888 views 327 this week
2 commentsread comments
1 2 3 4 5
x 30
add to favorites
×
Save as Personal and add changes to this tab that will be seen only by you. Learn more ›
×
You can save this tab as Personal to edit and correct it or add notes. All changes will be seen only by you. Learn more »
launch autoscroll
font size
0
reset
how to read this tab
guitar tuner
edit
Autoscroll
slow
fast
+/-
esc
set tempo
stop
Author
Difficulty
[Intro]

    Em      G/F#  G     G    C     C
e|--0----0----|--0-----0--0----|---0----0----0--0---|
B|--0----0----|--0-----1--0----|---1----1----1--1---|
G|--0----0----|--0-----0--0----|---0----0----0--0---|
D|--2----2--0-|--0-----0--0----|---2----2----2--2---|
A|--2----2--0-|--2-----2--2--3-|---3----3----3--3---|
E|--0----0--2-|--3-----3--3--3-|---3----3----3--3---|


[Verse]

Em                 G                      C        C
Staring at the clouds, looking for a silver line
Em                  G                                    C        C
I was caught in a cocoon but now you got me feeling butterflies
Em        G/F#      G                         C            C
dreaming in the lows, I never thought I'd see this high
  Em                      G                         C            C
now I'm shooting for the moon, you're calling me a lunar light


[Chorus]

               C              G                      D                      D/F
  D
e|-----------|--0-------------|-0---------------------0--------------------|--0----0-------0----0------|
B|-----------|--1-------------|-0---------------------3--------------------|--3----3-------3----3------|
G|-----------|--0-------------|-0---------------------2--------------------|--0----0-------2----2------|
D|-----------|--2-------------|-0---------------------0--------------------|--0----0-------0----0------|
A|-----------|--3-------------|-2---------------------0--------------------|--0h3--3-------0----0------|
E|-----------|--3-------------|-3---------------------0--------------------|--0----0-------0----0------|

  and all this shade is, illuminating; and all those love lines, are taking shape      and all my

                C               G                         D               D/F            D
e|-----------|--0-------------|-0--------------------|----0-------------|--0----0--------0----0------|
B|-----------|--0-------------|-0--------------------|----3-------------|--3----3--------2----2------|
G|-----------|--0-------------|-0--------------------|----2-------------|--0----0--------3----3------|
D|-----------|--2-------------|-0--------------------|----0-------------|--0----0--------0----0------|
A|-----------|--3-------------|-2--------------------|----0-------------|--3----3--------0----0------|
E|-----------|--3-------------|-3--------------------|----0-------------|--0----0--------0----0------|
                worries,    disintegrating ; and i’ve been waiting, i’ve been waiting; and all my

 C                    G                    D              G/F#        D
days were young and wasted ;  when i was waiting, oh for you.    and all the
C                      G                     D            G/F#          D
plans that i’ve been chasing     are always fading.   but ever since i found
C                                       Em    Em   G/F#    G    C
you ;     a little light is breaking through


[Instrumental]

Em   G/F#    G    C


[Verse]

Em                 G                    C              C
Staring at the roots, nobody there to help me grow
Em                      G                                       C        C
i was longing for the rain, you were the flood that made me overflow
Em         G/F#     G                       C              C
a stranger to my skin, but now i’m braver in my bones, oh
  Em                          G                         C            C
y' see i'm shooting for the moon, you're painting me in indigo


[Chorus]

               C              G                      D                      D/Em
  D
e|-----------|--0-------------|-0---------------------0--------------------|--0----0-------0----0------|
B|-----------|--1-------------|-0---------------------3--------------------|--2----2-------2----2------|
G|-----------|--0-------------|-0---------------------2--------------------|--0----0-------3----3------|
D|-----------|--2-------------|-0---------------------0--------------------|--0----0-------0----0------|
A|-----------|--3-------------|-2---------------------0--------------------|--0h3--3-------0----0------|
E|-----------|--3-------------|-3---------------------0--------------------|--0----0-------0----0------|

  and all this shade is, illuminating; and all those love lines, are taking shape     and all  my

                C               G                         D               D/Em           D
e|-----------|--0-------------|-0--------------------|----0-------------|--0----0--------0----0------|
B|-----------|--0-------------|-0--------------------|----3-------------|--3----3--------3----3------|
G|-----------|--0-------------|-0--------------------|----2-------------|--0----0--------2----2------|
D|-----------|--2-------------|-0--------------------|----0-------------|--0----0--------0----0------|
A|-----------|--3-------------|-2--------------------|----0-------------|--0h3--3--------0----0------|
E|-----------|--3-------------|-3--------------------|----0-------------|--0----0--------0----0------|
                worries,    disintegrating ; and i’ve been waiting, i’ve been waiting; and all my

 C                    G                    D              G/F#        D
days were young and wasted ;  when i was waiting, oh for you.    and all the
C                      G                     D            G/F#          D
plans that i’ve been chasing     are always fading.   but ever since i found
C                                       Em    Em   G/F#    G    C
you ;     a little light is breaking through
C                              Em  Em   G/F#    G    C
A little light is breaking through


[Chorus]

               C              G                      D                      D/Em
  D
e|-----------|--0-------------|-0---------------------0--------------------|--0----0-------0----0------|
B|-----------|--1-------------|-0---------------------3--------------------|--3----3-------3----3------|
G|-----------|--0-------------|-0---------------------2--------------------|--0----0-------2----2------|
D|-----------|--2-------------|-0---------------------0--------------------|--0----0-------0----0------|
A|-----------|--3-------------|-2---------------------0--------------------|--0h3--3-------0----0------|
E|-----------|--3-------------|-3---------------------0--------------------|--0----0-------0----0------|

  and all this shade is, illuminating; and all those love lines, are taking shape     and all my

                C               G                         D               D/Em           D
e|-----------|--0-------------|-0--------------------|----0-------------|--0----0--------0----0------|
B|-----------|--0-------------|-0--------------------|----2-------------|--3----3--------3----3------|
G|-----------|--0-------------|-0--------------------|----3-------------|--0----0--------2----2------|
D|-----------|--2-------------|-0--------------------|----0-------------|--0----0--------0----0------|
A|-----------|--3-------------|-2--------------------|----0-------------|--0h3--3--------0----0------|
E|-----------|--3-------------|-3--------------------|----0-------------|--0----0--------0----0------|
                worries,    disintegrating ; and i’ve been waiting, i’ve been  waiting; and all my

 C                    G                    D              G/F#        D
days were young and wasted ;  when i was waiting, oh for you.    and all the
C                      G                     D            G/F#          D
plans that i’ve been chasing     are always fading.   but ever since i found
C                                       Em    Em   G/F#    G    C
you ;     a little light is breaking through
C                              Em  Em   G/F#    G    C
A little light is breaking through
C                              Em  Em   G/F#    G    C
A little light is breaking through
C                              Em  Em   G/F#    G    C   C
A little light is breaking through


***********************
h    hammer-on
***********************

            
            
Suggest correction
Creating personal tab
Creating personal tab
You can edit any tab online and save it as your Personal.

You can edit, replace or remove any tab part or add personal notes – all changes will be seen only by you.

Personal tabs can be accessed anytime from any device, even offline.
Learn more »
comments
print report bad tab
2 comments total.
+2 reply
JodiFRANSEXY 120 Dec 09, 2016 12:14 PM

he's only just put up a tutorial for it and it's nearly there dude, just the second D in the chorus that needs changing, awesome! https://www.youtube.com/watch?v=CMjRH1u8sp4&feature=youtu.be&ab_channel=LewisWatson

+1 reply
chris7890 10 Jun 14, 2017 10:22 PM

you wrote the D wrong too lol

guest
You may want to rate the tab now too:
select rating
Wanna post a correction for this tab? Suggest correction