Oops, an error
Loading. Please wait.

Midnight chords

679 views 21 this week
no commentswrite comment
1 2 3 4 5
x 5
add to favorites
×
Save as Personal and add changes to this tab that will be seen only by you. Learn more ›
×
You can save this tab as Personal to edit and correct it or add notes. All changes will be seen only by you. Learn more »
launch autoscroll
font size
0
reset
transpose
0
reset
display chords
guitar tuner
edit
Autoscroll
slow
fast
+/-
esc
set tempo
stop
Strumming
There is no strumming pattern for this song yet. and get +5 IQ
Capo 3rd Fret
For Standard Tuning, you can have the capo on the 2nd fret

[Chords]
    G   Em  C   D
e|--3---0---0---0--|
B|--3---0---1---3--|
G|--0---0---0---0--|
D|--0---2---2---4--|
A|--2---2---3---5--|
E|--3---0---3---5--|

[Intro]
e|------------------------------------------------------------|
B|--------0-3-------- 0-3-0------------0-----------0-3-0------|
G|----0-2---------0-2-------2-0----0-2---2-0----0-2------2-0--|
D|------------------------------------------------------------|
A|--------------------------------------------3---------------|
E|--3-----------3----------------0----------------------------|

[Verse]
    G
We ran to the borderline,
                                    Em
Where the northern lights flew over us,

Another cold midnight,
 C
But I could lay right here forever,
 G
And in the distant skies 
                              Em
Beyond the trees and rolling hills,

We watched a city die,
 C
But I could lay right here forever.

[Chorus]
 D                               C
They say we're nothing but a heartbeat,
 D                            C
But I can tell that when our eyes meet,
D              C
We can go on forever,
 D
When everything's gone forever
 D
When everything's gone forever

[Instrumental]
e|------------------------------------------------------------|
B|--------0-3-------- 0-3-0------------0-----------0-3-0------|
G|----0-2---------0-2-------2-0----0-2---2-0----0-2------2-0--|
D|------------------------------------------------------------|
A|--------------------------------------------3---------------|
E|--3-----------3----------------0----------------------------|

[Verse]
 G
When intuition fades,

And all we know is over,
        Em
We'll travel to the kissing gate
 C
And we can stay forever.

[Chorus]
 D                               C
They say we're nothing but a heartbeat,
 D                            C
But I can tell that when our eyes meet,
D              C
We can go on forever,
 D
When everything's gone forever
 D
When everything's gone forever

D               C
We can go on forever (x15)
D
We can go on forevever. When everything's gone forever

[Outro]
e|--------------------------------------------------------------|
B|--------0-3-------- 0-3-0------------0-----------0-3-0--------|
G|----0-2---------0-2-------2-0----0-2---2-0----0-2------2-0----|
D|--------------------------------------------------------------|
A|--------------------------------------------3-----------------|
E|--3-----------3----------------0---------------------------3--|

            
            
Suggest correction
Creating personal tab
Creating personal tab
You can edit any tab online and save it as your Personal.

You can edit, replace or remove any tab part or add personal notes – all changes will be seen only by you.

Personal tabs can be accessed anytime from any device, even offline.
Learn more »
comments
print report bad tab
guest
You may want to rate the tab now too:
select rating
Wanna post a correction for this tab? Suggest correction