Oops, an error
Loading. Please wait.

Outgrow Tab

version 1
version 1

Whole song

2,995 views 1 this week
2 commentsread comments
1 2 3 4 5
2 more votes to show rating
add to favorites
launch autoscroll
font size
0
reset
how to read this tab
guitar tuner
Autoscroll
slow
fast
+/-
esc
set tempo
stop
Help us to improve Ultimate-Guitar.com Take our survey!
×
Author
Difficulty
novice
lewis watson // outgrow

just repeat these parts throughout the whole song:

bar 1:
E|-----------------------------------1--------------                    
B|-----------1--------------------------------------
G|-----3-----------3-----3-----3-----------3-----3--    x2
D|--1-----1-----1-----1-----1-----1-----1-----1-----
A|--------------------------------------------------
E|--------------------------------------------------

bar 3:
E|-----------------------------------5--------------
B|-----------3--------------------------------------
G|-----5-----------5-----5-----5-----------5-----5--    x2
D|--3-----3-----3-----3-----3-----3-----3-----3-----
A|--------------------------------------------------
E|--------------------------------------------------


(please feel free to make any corrections because i only tried to learn the song in like 20mins)
Suggest correction
Give kudos to tab author, rate the tab!
1 2 3 4 5
comments
print report bad tab
2 comments total.
0 reply
emmag14 10 Jul 10, 2014 01:08 PM

if you watch on the live version Lewis plays it with a capo on 1st, also the pitch doesnt sound quite right even without a capo. just wanted to let you know

0 reply
mayavvard 35 Aug 18, 2014 10:32 AM

@emmag14 thanks for the comment ! usually lewis plays with a capo on first as he tunes his guitar down half a step

guest
You may want to rate the tab now too:
select rating
Wanna post a correction for this tab? Suggest correction