Oops, an error
Loading. Please wait.

Mi Vanidad Tab

954 views 1 this week
1 commentread comment
1 2 3 4 5
3 more votes to show rating
add to favorites
launch autoscroll
font size
0
reset
how to read this tab
guitar tuner
×
Best way to learn
"Mi Vanidad"
Autoscroll
slow
fast
+/-
esc
set tempo
stop
MI VANIDAD - LHASA

Tabbed by Seb Oddos dit Zappy the Koala

On the verses :

E |---------------------------------------------------------|
B |--1-----1-----3-----3-----4-----4-----5------5-----------|
G |----2-----2-----2-----2-----2-----2-----4-------4--------|
D |------2-----2-----3-----3-----4-----4------2-------2-----|
A |---------------------------------------------------------|
E |---------------------------------------------------------|

Verses

Desde que no hay maldad,
Que no hay ni hambre,
Ni miedo, ni soledad,
No hay nadie que me ame
En toda esa ciudad... 

Desde que no hay dolor,
No hay nadie que sufra
Por un amor,
Nadie más que yo.
No, no quiero olvidar...

Chorus (G  C  F  E) 

[G] ¡ Ay ! Ya no se can [C] ta Como se cantaba ayer. 
Ahora di [F] cen : "Ven, tomamos un ca [E] fé 
Besamos en Français". 
No, ya no se canta: "Sin tu amor me moriré".
No se grita ya: "No aguanto ese sufrir... 
Quiero vivir...". Linda canción.

Verses

Desde que no hay maldad,
Todo el mundo se ríe 
De mi ansiedad.
Yo lo llamo "poesía",
Le dicen "Vanidad"...

Desde que no hay tradición,
Mi vida se desnuda 
Ya sin pasión,
Y no sé para qué
Sirve mi corazón...

Chorus (G  C  F  E)
Suggest correction
Give kudos to tab author, rate the tab!
1 2 3 4 5
comments
print report bad tab
1 comment total.
0 reply
podarcis 10 Jul 14, 2014 07:00 AM

thanks! I tried something like this for the verses.. not too bad.

E |--------------------------------------------------------|
B |--1-----1-----------3-----3-----------4-----4-----------|
G |------2---2-------------2---2-------------2---2---------|
D |----2-------2---------3-------3---------4-------4-------|
A |--0-----------0(2X)-0-----------0(2X)-2-----------2-(2X)|
E |--------------------------------------------------------|

E |--------------------------------|
B |--5-----5--------0-----0--------|
G |------4----4---------1---1------|
D |----2--------2-----2-------2----|
A |--2------------2----------------|
E |-----------------0-----------0--|

podarcis.

guest
You may want to rate the tab now too:
select rating
Wanna post a correction for this tab? Suggest correction