Oops, an error
Loading. Please wait.

Gather To The Chapel Bass Tab

336 views 1 this week
no commentswrite comment
1 2 3 4 5
accurate
x 1
add to favorites
launch autoscroll
font size
0
reset
guitar tuner
Tab Pro tools
  • play this tab
  • loop segment
  • change instrument
  • show fretboard
  • metronome
Autoscroll
slow
fast
+/-
esc
set tempo
stop
Contributor
Difficulty
novice
-----------------------------------------------------------------------------
			  Gather to the Chapel – Liam Finn
-----------------------------------------------------------------------------

Tabbed By : ryan s
e-mail:

i just like this song

Tuning:

	VERSE/CHORUS
G|---------------------------------------------------------------------------|
D|---------------------------------------------------------------------------|
A|---7~--------4~------------------------------------------------------------|
E|----------------------7~--------4~-----------------------------------------|

	Bridge 2:15 just listen to the song for the timing
G|---------------------------------------------------------------------------|
D|---------------------------------------------------------------------------|
A|----------------------------6-7--------------------------------------------|
E|---4-4-4-4-4-4-4-4-4-4-4-4------4-4-4-4-4----------------------------------|

	2:29 play till chorus
G|---------------------------------------------------------------------------|
D|---------------------------------------------------------------------------|
A|-7--7-7-7-5-4--------------------------------------------------------------|
E|--------------4--4-4-4-5-7-------------------------------------------------|
comments
We did not receive enough feedback on this tab! Please rate:
print report bad tab
1 2 3 4 5
I want to post or [tab]
guest
You may want to rate the tab now too:
select rating
Please do not post tabs as comments. Select "correction" instead!