Oops, an error
Loading. Please wait.

Lead Balloon Tab

1,003 views 1 this week
no commentswrite comment
1 2 3 4 5
3 more votes to show rating
add to favorites
launch autoscroll
font size
0
reset
how to read this tab
guitar tuner
Autoscroll
slow
fast
+/-
esc
set tempo
stop
Help us to improve Ultimate-Guitar.com Take our survey!
×
Difficulty
Tuning
intermediate
D A D G B E
-------------------------------------------------------------------------------
                             LEAD BALLOON - Liam Finn
-------------------------------------------------------------------------------
Tabbed by: Dan Grigg    
Email: dangrigg@gmail.com

Tuning: DADGBe

Verse:

Guitar:
e|---------------------------------------------------------------------------|
B|---------------------------------------------------------------------------|
G|--------x-x-77------------------------REPEAT-------------------------------|
D|---8-8--x-x-77--5-5-3h5-5-5-----------  x   -------------------------------|
A|---8-8--x-x-55--5-5-3h5-5-5------------------------------------------------|
D|---8-8----------5-5-3h5-5-5------------------------------------------------|

Bass:
G|---------------------------------------------------------------------------|
D|-------------3h5p3---------------------------------------------------------|
A|---1-1-x-3h5------5-5------------------------------------------------------|
D|----------------------5-5-x-5 3h5------------------------------------------|

Break:

Guitar:
e|---------------------------------------------------------------------------|
B|---------------------------------------------------------------------------|
G|--3-3-x-x-x-3-x-3-3-x-x-3-3--4-4-x-x-x-4-x-4-4-x-x-4-4---------------------|
D|--2-2-x-x-x-2-x-2-2-x-x-2-2--5-5-x-x-x-5-x-5-5-x-x-5-5---------------------|
A|--3-3-x-x-x-3-x-3-3-x-x-3-3--5-5-x-x-x-5-x-5-5-x-x-5-5---------------------|
D|---------------------------------------------------------------------------|

e|---------------------------------------------------------------------------|
B|---------------------------------------------------------------------------|
G|---------------------------------------------------------------------------|
D|--1-1-x-x-x-1-x-1-1-x-x-1-1-x-x-5-5-x-x-x-5-x-5-5-x-x-5-5------------------|
A|--1-1-x-x-x-1-x-1-1-x-x-1-1-x-x-5-5-x-x-x-5-x-5-5-x-x-5-5------------------|
D|--1-1-x-x-x-1-x-1-1-x-x-1-1-x-x-5-5-x-x-x-5-x-5-5-x-x-5-5------------------|

Bass:
G|---------------------------------------------------------------------------|
D|---------------------------------------------------------------------------|
A|---------------------------------------------------------------------------|
D|--10-10-x-x-10-x-10-10-x-x-10-10-x-5-5-x-x-5-x-5-5-x-x-5-5-----------------|

G|---------------------------------------------------------------------------|
D|---------------------------------------------------------------------------|
A|---------------------------------------------------------------------------|
D|--1-1-x-x-8-8h10p8-0-1-1-x-x-8-8h10p8-0-5-5-x-5-5-5-7-7-8-8-9-9------------|

Obviously it helps if you have a looper pedal and a fuzz factory (for the theremin part!)
If you have a looper, start recording your break loop when you go down the the 1st fret 
on the D string. just makes it sound better if you stop/start at all. You can bring it 
back in with just the guitar from the beginning of the break riff, then throw in the 
bass to make your head explode :D

Also, there is a part missing that i've yet to figure out and the bassline may be slightly
different from the record, due to seeing live performances.

Better than the existing one at least!

Love-mail to the G-Mail :)


| /  slide up
| \  slide down
| h  hammer-on
| p  pull-off
| ~  vibrato
| +  harmonic
| x  Mute note
===============================================================================
Suggest correction
Give kudos to tab author, rate the tab!
1 2 3 4 5
comments
print report bad tab
guest
You may want to rate the tab now too:
select rating
Wanna post a correction for this tab? Suggest correction