Oops, an error
Loading. Please wait.

Second Chance Tab

version 1
version 1

Whole song

Interactive

3,562 views 1 this week
1 commentread comment
1 2 3 4 5
please rate
add to favorites
launch autoscroll
font size
0
reset
how to read this tab
guitar tuner
Tab Pro tools
  • play this tab
  • loop segment
  • change instrument
  • show fretboard
  • metronome
×
Best way to learn
"Second Chance"
Autoscroll
slow
fast
+/-
esc
set tempo
stop
Contributor
Difficulty
novice
-------------------------------------------------------------------------------
                             Second Chance Liam Finn
-------------------------------------------------------------------------------
Tabbed by:Mr. Cheeks
Email:

Hope This will Help. This is a great song

Tuning:Standard

Intro/Verse

e|--4------9----------------------------------------------------------------\-----|
B|--5------9-----5-----4----------------------------------------------------------|
G|--6------9-----6-----5----------------------------------------------------------|
D|--6------------7-----6----------------------------------------------------------|
A|---------------7-----6----------------------------------------------------------|
E|--------------------------------------------------------------------------------|

Breakdown Verse/Chorus

Palm mute the "Remember me cause honestly I don't remember who you are." Part

e|--------------------------------------------------------------------------------------|
B|---9-----------------9-----------6------9---------------------------------------------|
G|---9-----------------9-----------6------9---------------------------------------------|
D|---7----6------5-----7----6------4------7----5-----6----------------------------------|
A|--------6------5----------6------------------5-----6----------------------------------|
E|--------4------7----------4------------------7-----4----------------------------------|

| /  slide up
| \  slide down
| h  hammer-on
| p  pull-off
| ~  vibrato
| +  harmonic
| x  Mute note
===============================================================================
comments
We did not receive enough feedback on this tab! Please rate:
print report bad tab
1 2 3 4 5
1 comment total.
0 reply
thepatman0 wrote on March 7 2008, 01:09 am

where's the rest of the song?

I want to post or [tab]
guest
You may want to rate the tab now too:
select rating
Please do not post tabs as comments. Select "correction" instead!