Oops, an error
Loading. Please wait.

Second Chance Tab

version 2
version 2

Whole song

Interactive

10,453 views 6 this week
2 commentsread comments
1 2 3 4 5
excellent!
x 8
add to favorites
launch autoscroll
font size
0
reset
how to read this tab
guitar tuner
Tab Pro tools
  • play this tab
  • loop segment
  • change instrument
  • show fretboard
  • metronome
Autoscroll
slow
fast
+/-
esc
set tempo
stop
Contributor
Difficulty
intermediate
Second Chance
Liam Finn

Transcribed By Leck Sluether
Email souldoubt182@hotmail.com

Liam is electrifying live !!

email me any corrections / comments

INtro - Cm D# G# G

A guitar plays a melody using low notes from AMjaor pentatonic throughout

Cm
Sew the seeds
D#		   G#		 G
Sew the seeds to life by packing up to make it right
Cm
And all I need
D#		 G#
All I need to know
		     G
Are you too proud to let it go?

(this part is muted)
Cm
Remember me
D#		 G#			D#    G
Well honestly I don't remember who you are

Cm
So it seems
D#		   G#				   G
And so it seems tonight, you've got that wild look in your eye
Cm
What do you need
D#		    G#
What do you need to prove?
		      G
The woman that you turn into

(muted)
Cm
Remember me
D#		  G#			D#    G
Well honestly I don't remember who you are

(Strumed)
Cm	 D# 			G#			G
The memory has never been the best, you want a second chance

Cm	      D#		G#   G
You stand around your haunted home
Cm	      D#		G#   G
Those demons won't leave you alone
Cm	      D#		G#   G
Don't forget me when you grow old

(Muted)
Cm 	    D#
Remember me
 		G#		        D#   G   Cm
Well honestly I don't remember who you are

	D#			G#	 	      D#   G
The memory has never been the best, you want a second chance

Cm		D#		 G#  G
You stand around your haunted home

Cm		D#		 G#  G
Those demons won't leave you alone

Cm		D#		 G#  G
Don't forget me when you grow old

Cm	   D#	 G#  G
Rememember remember

The Cm D# G# G are looped and this is played over it with an octave pedal

E|----------------------------------------------------------------------------|
B|----------------------------------------------------------------------------|
G|----------------------------------------------------------------------------|
D|-------------8p5------------------------------------------------------------|
A|-----8h10----------6--8h10--6-------------------6--------6----------5----5--|
E|--8--------8---------------------3/6--6--6--4--4-----4--4----0/3--3---3-3---|

then that is looped and play a bunch of notes like this


E|--8--8--8--8--8p6--6--6--6------------------------------------------------|
B|----------------------------8--8--8--8--8p6--6--6--6h8--8--8--8--8--6--6--|
G|--------------------------------------------------------------------------|
D|--------------------------------------------------------------------------|
A|--------------------------------------------------------------------------|
E|--------------------------------------------------------------------------|

E|-----6h8--8--8----------------------------------------------6--6--8----|
B|---------------------------------------------6--6--8--8----------------|
G|-----------------8--8--8--5--5--5--5--8--8-----------------------------|
D|-----------------------------------------------------------------------|
A|-----------------------------------------------------------------------|
E|-----------------------------------------------------------------------|

Seethe!
comments
print report bad tab
2 comments total.
+1 reply
samisabig1 wrote on July 20 2009, 05:10 pm

good tab, but i think (i could be wrong) that the bit liam plays an octave down during the chorus is more like:

E|------------------------------------------------------------------|
B|------------------------------------------------------------------|
G|------------------------------------------------------------------|
D|-------------8p55-------------------------------------------------|
A|---8h1010----------6-8h1010-6-8h1010------------------------------|
E|-8---------8--------------------------4-4/88-4-4/88-3-3/77-3-3/77-|

im sure thats right, although i'm not very good at tabbing.
cheers

0 reply
JoeB007 wrote on March 20 2014, 06:23 pm

I think the muted parts (Remember me & The memory) the first two chords are swapped around so it's D# first then Cm for those bits. Maybe?

D# Cm G# D# G x2

I want to post or [tab]
guest
You may want to rate the tab now too:
select rating
Please do not post tabs as comments. Select "correction" instead!