Oops, an error
Loading. Please wait.

Wall Of Glass tab

version 1
version 1

Whole song

  • Both rhythm and lead guitar. Will make changes onc... Show more

Video

7,042 views 300 this week
no commentswrite comment
1 2 3 4 5
x 5
add to favorites
×
Save as Personal and add changes to this tab that will be seen only by you. Learn more ›
×
You can save this tab as Personal to edit and correct it or add notes. All changes will be seen only by you. Learn more »
launch autoscroll
font size
0
reset
how to read this tab
guitar tuner
edit
Autoscroll
slow
fast
+/-
esc
set tempo
stop
About this tab version
Both rhythm and lead guitar. Will make changes once the song is released and I can actually hear it properly. Was this info helpful? Yes No
Wall of Glass - Liam Gallagher

Tabbed by: Casey Copestick

Tuning: Standard

Debuted 30/05/17 at the O2 Ritz Manchester - https://www.youtube.com/watch?v=umLzFOyQvhM

This was tabbed from a poor audience recording of a live gig. When the song is released properly I'll go 
through this again and correct anything that was missed.






[Intro]

     Eb          Bb          C           G 

e|---------------------------------------------------------------------------|
B|---------------------------------------------------------------------------|
G|---8-----------------------5-----------------------------------------------|     X2
D|---8-----------8-----------5-----------5-----------------------------------|
A|---6-----------8-----------3-----------5-----------------------------------|
E|---------------6-----------------------3-----------------------------------|


             

e|---------------------------------------------------------------------------|
B|---------------------------------------------------------------------------|
G|---5b-5b-5b-5br-3----------------------------------------------------------|  Pick the G string as you 
D|------------------5--------------------------------------------------------|  release the bend
A|---------------------------------------------------------------------------|
E|---------------------------------------------------------------------------|



Then

     Eb          Bb          D           G                E            F
e|---------------------------------------------------------------------------|
B|---------------------------------------------------------------------------|
G|---8-----------------------7----------------------------8------------10----|
D|---8-----------8-----------7-----------5----------------8------------10----|
A|---6-----------8-----------5-----------5----------------6------------8-----|
E|---------------6-----------------------3-----------------------------------|



              
e|---------------------------------------------------------------------------|
B|---------------------------------------------------------------------------|
G|--------------------------5b-5b-5b-5b-5b-5b-5b-5b-5b-5b-5b-5b-5b-5b-5b-5br-|Release the bend and let ring
D|---------------------------------------------------------------------------|
A|---------------------------------------------------------------------------|
E|---------------------------------------------------------------------------|






[Verse 1]

    D       C

e|---------------------------------------------------------------------------|
B|---------------------------------------------------------------------------|
G|--7-------5----------------------------------------------------------------| 3x strums of each chord,
D|--7-------5----------------------------------------------------------------| alternating up and down
A|--5-------3----------------------------------------------------------------|
E|---------------------------------------------------------------------------|




You were keeping secrets in you
You've been keeping Paraphernalia, oh, I think you know

    C                   D                           G
e|---------------------------------------------------------------------------|
B|---------------------------------------------------------------------------|
G|--5-------------------7----------------------------------------------------|
D|--5-------------------7---------------------------5------------------------|
A|--3-------------------5---------------------------5------------------------|
E|--------------------------------------------------3------------------------|

  

    D       C

e|---------------------------------------------------------------------------|
B|---------------------------------------------------------------------------|
G|--7-------5----------------------------------------------------------------| 3x strums of each chord,
D|--7-------5----------------------------------------------------------------| alternating up and down
A|--5-------3----------------------------------------------------------------|
E|---------------------------------------------------------------------------|




Anyone could walk up to you, Anyone could see right through your eyes

    C                                                              D      
e|---------------------------------------------------------------------------|
B|---------------------------------------------------------------------------|
G|--5--------------------------------------------------------------7---------|
D|--5--------------------------------------------------------------7---------|
A|--3--------------------------------------------------------------5---------|
E|---------------------------------------------------------------------------|



All night

    F                                                                    
e|---------------------------------------------------------------------------|
B|---------------------------------------------------------------------------|
G|--10-----------------------------------------------------------------------|
D|--10-----------------------------------------------------------------------|
A|--8------------------------------------------------------------------------|
E|---------------------------------------------------------------------------|


[Chorus 1 Rhythm Guitar]

And I don't mean to be unkind 
But I see what's in your mind

     Eb          Bb          C           G 
e|---------------------------------------------------------------------------|
B|---------------------------------------------------------------------------|
G|---8-----------------------5-----------------------------------------------|     
D|---8-----------8-----------5-----------5-----------------------------------|
A|---6-----------8-----------3-----------5-----------------------------------|
E|---------------6-----------------------3-----------------------------------|


e|---------------------------------------------------------------------------|
B|---------------------------------------------------------------------------|
G|---5b-5b-5b-5br-3----------------------------------------------------------|  Pick the G string as you 
D|------------------5--------------------------------------------------------|  release the bend
A|---------------------------------------------------------------------------|
E|---------------------------------------------------------------------------|


And the stone you throw, will turn back in it's path


     Eb          Bb          D           G 
e|---------------------------------------------------------------------------|
B|---------------------------------------------------------------------------|
G|---8-----------------------7-----------------------------------------------|
D|---8-----------8-----------7-----------5-----------------------------------|
A|---6-----------8-----------5-----------5-----------------------------------|
E|---------------6-----------------------3-----------------------------------|

e|---------------------------------------------------------------------------|
B|---------------------------------------------------------------------------|
G|---5b-5b-5b-5b-------------------------------------------------------------| This lead section starts at
D|---------------------------------------------------------------------------| the word 'turn'
A|---------------------------------------------------------------------------|
E|---------------------------------------------------------------------------|


One day you'll shatter like a wall of glass

    Eb          F
e|---------------------------------------------------------------------------|
B|---------------------------------------------------------------------------|
G|--8-----------10-----------------------------------------------------------|
D|--8-----------10-----------------------------------------------------------|
A|--6-----------8------------------------------------------------------------|
E|---------------------------------------------------------------------------|

e|---------------------------------------------------------------------------|
B|---------------------------------------------------------------------------|
G|---5b-5b-5b-5b-5br---------------------------------------------------------| And carries on for this entire 
D|---------------------------------------------------------------------------| sentence, ending in releasing
A|---------------------------------------------------------------------------| the bend and letting the note
E|---------------------------------------------------------------------------| ring


Wall of Glass

     Eb          Bb          D           G 
e|---------------------------------------------------------------------------|
B|---------------------------------------------------------------------------|
G|---8-----------------------7-----------------------------------------------|
D|---8-----------8-----------7-----------5-----------------------------------| Play x3 times
A|---6-----------8-----------5-----------5-----------------------------------|
E|---------------6-----------------------3-----------------------------------|

e|---------------------------------------------------------------------------|
B|--6-3----------------------------------------------------------------------|
G|-------5-3-5h3-5b-3--------------------------------------------------------|  Easy to improvise extra notes
D|--------------------5------------------------------------------------------|
A|---------------------------------------------------------------------------|
E|---------------------------------------------------------------------------|



One day you'll shatter like a wall of glass

    Eb          F
e|---------------------------------------------------------------------------|
B|---------------------------------------------------------------------------|
G|--8------------------------------------------------------------------------|
D|--8-----------3------------------------------------------------------------|
A|--6-----------3------------------------------------------------------------|
E|--------------1------------------------------------------------------------|




[bridge 1]

e|--10-----------------------------------------------------------------------|
B|-----13-11-----------------------------------------------------------------|
G|-----------14-12-10-7------------------------------------------------------|
D|---------------------------------------------------------------------------|
A|---------------------------------------------------------------------------|
E|---------------------------------------------------------------------------|


[Verse 2]

    D       C

e|---------------------------------------------------------------------------|
B|---------------------------------------------------------------------------|
G|--7-------5----------------------------------------------------------------| 3x strums of each chord,
D|--7-------5----------------------------------------------------------------| alternating up and down
A|--5-------3----------------------------------------------------------------|
E|---------------------------------------------------------------------------|


You believe in fascinations
And designer vaccinations, love
You get along

    C                   D                           G
e|---------------------------------------------------------------------------|
B|---------------------------------------------------------------------------|
G|--5-------------------7----------------------------------------------------|
D|--5-------------------7---------------------------5------------------------|
A|--3-------------------5---------------------------5------------------------|
E|--------------------------------------------------3------------------------|

  

    D       C

e|---------------------------------------------------------------------------|
B|---------------------------------------------------------------------------|
G|--7-------5----------------------------------------------------------------| 3x strums of each chord,
D|--7-------5----------------------------------------------------------------| alternating up and down
A|--5-------3----------------------------------------------------------------|
E|---------------------------------------------------------------------------|




You were sold a one direction, I believe the resurrection's on

    C                                                              D      
e|---------------------------------------------------------------------------|
B|---------------------------------------------------------------------------|
G|--5--------------------------------------------------------------7---------|
D|--5--------------------------------------------------------------7---------|
A|--3--------------------------------------------------------------5---------|
E|---------------------------------------------------------------------------|


and you were wrong

    F                                                                    
e|---------------------------------------------------------------------------|
B|---------------------------------------------------------------------------|
G|--10-----------------------------------------------------------------------|
D|--10-----------------------------------------------------------------------|
A|--8------------------------------------------------------------------------|
E|---------------------------------------------------------------------------|





[Chorus 2]

And I don't mean to be unkind 
But I see what's in your mind

     Eb          Bb          C           G 
e|---------------------------------------------------------------------------|
B|---------------------------------------------------------------------------|
G|---8-----------------------5-----------------------------------------------|     
D|---8-----------8-----------5-----------5-----------------------------------|
A|---6-----------8-----------3-----------5-----------------------------------|
E|---------------6-----------------------3-----------------------------------|


e|---------------------------------------------------------------------------|
B|---------------------------------------------------------------------------|
G|---5b-5b-5b-5br-3----------------------------------------------------------|  Pick the G string as you 
D|------------------5--------------------------------------------------------|  release the bend
A|---------------------------------------------------------------------------|
E|---------------------------------------------------------------------------|


And the stone you throw, will turn back in it's path


     Eb          Bb          D           G 
e|---------------------------------------------------------------------------|
B|---------------------------------------------------------------------------|
G|---8-----------------------7-----------------------------------------------|
D|---8-----------8-----------7-----------5-----------------------------------|
A|---6-----------8-----------5-----------5-----------------------------------|
E|---------------6-----------------------3-----------------------------------|

e|---------------------------------------------------------------------------|
B|---------------------------------------------------------------------------|
G|---5b-5b-5b-5b-------------------------------------------------------------| This lead section starts at
D|---------------------------------------------------------------------------| the word 'turn'
A|---------------------------------------------------------------------------|
E|---------------------------------------------------------------------------|


One day you'll shatter like a wall of glass

    Eb          F
e|---------------------------------------------------------------------------|
B|---------------------------------------------------------------------------|
G|--8-----------10-----------------------------------------------------------|
D|--8-----------10-----------------------------------------------------------|
A|--6-----------8------------------------------------------------------------|
E|---------------------------------------------------------------------------|

e|---------------------------------------------------------------------------|
B|---------------------------------------------------------------------------|
G|---5b-5b-5b-5b-5br---------------------------------------------------------| And carries on for this entire 
D|---------------------------------------------------------------------------| sentence, ending in releasing
A|---------------------------------------------------------------------------| the bend and letting the note
E|---------------------------------------------------------------------------| ring


Wall of Glass

     Eb          Bb          D           G 
e|---------------------------------------------------------------------------|
B|---------------------------------------------------------------------------|
G|---8-----------------------7-----------------------------------------------|
D|---8-----------8-----------7-----------5-----------------------------------| Play x3 times
A|---6-----------8-----------5-----------5-----------------------------------|
E|---------------6-----------------------3-----------------------------------|

e|---------------------------------------------------------------------------|
B|--6-3----------------------------------------------------------------------|
G|-------5-3-5h3-5b-3--------------------------------------------------------|  Easy to improvise extra notes
D|--------------------5------------------------------------------------------|
A|---------------------------------------------------------------------------|
E|---------------------------------------------------------------------------|



One day you'll shatter like a wall of glass

    Eb          F
e|---------------------------------------------------------------------------|
B|---------------------------------------------------------------------------|
G|--8------------------------------------------------------------------------|
D|--8-----------3------------------------------------------------------------|
A|--6-----------3------------------------------------------------------------|
E|--------------1------------------------------------------------------------|



[bridge 2]



e|--10---------------------|-----------------------------------------------------|
B|-----13-11---------------|----------5-3----3-1---------------------------------|
G|-----------14-12-10-7----|5-3-----7------------3-------------------------------|  Play x2
D|-------------------------|-----------------------------------------------------|  
A|-------------------------|----3-1--------3-------------------------------------|  
E|-------------------------|-----------------------------------------------------|




[Chorus 3]

And I don't mean to be unkind 
But I see what's in your mind

     Eb          Bb          C           G 
e|---------------------------------------------------------------------------|
B|---------------------------------------------------------------------------|
G|---8-----------------------5-----------------------------------------------|     
D|---8-----------8-----------5-----------5-----------------------------------|
A|---6-----------8-----------3-----------5-----------------------------------|
E|---------------6-----------------------3-----------------------------------|


e|---------------------------------------------------------------------------|
B|---------------------------------------------------------------------------|
G|---5b-5b-5b-5br-3----------------------------------------------------------|  Pick the G string as you 
D|------------------5--------------------------------------------------------|  release the bend
A|---------------------------------------------------------------------------|
E|---------------------------------------------------------------------------|


And the stone you throw, will turn back in it's path


     Eb          Bb          D           G 
e|---------------------------------------------------------------------------|
B|---------------------------------------------------------------------------|
G|---8-----------------------7-----------------------------------------------|
D|---8-----------8-----------7-----------5-----------------------------------|
A|---6-----------8-----------5-----------5-----------------------------------|
E|---------------6-----------------------3-----------------------------------|

e|---------------------------------------------------------------------------|
B|---------------------------------------------------------------------------|
G|---5b-5b-5b-5b-------------------------------------------------------------| This lead section starts at
D|---------------------------------------------------------------------------| the word 'turn'
A|---------------------------------------------------------------------------|
E|---------------------------------------------------------------------------|


One day you'll shatter like a wall of glass

    Eb          F
e|---------------------------------------------------------------------------|
B|---------------------------------------------------------------------------|
G|--8-----------10-----------------------------------------------------------|
D|--8-----------10-----------------------------------------------------------|
A|--6-----------8------------------------------------------------------------|
E|---------------------------------------------------------------------------|

e|---------------------------------------------------------------------------|
B|---------------------------------------------------------------------------|
G|---5b-5b-5b-5b-5br---------------------------------------------------------| And carries on for this entire 
D|---------------------------------------------------------------------------| sentence, ending in releasing
A|---------------------------------------------------------------------------| the bend and letting the note
E|---------------------------------------------------------------------------| ring


Wall of Glass

     Eb          Bb          D           G 
e|---------------------------------------------------------------------------|
B|---------------------------------------------------------------------------|
G|---8-----------------------7-----------------------------------------------|
D|---8-----------8-----------7-----------5-----------------------------------| Play x3 times
A|---6-----------8-----------5-----------5-----------------------------------|
E|---------------6-----------------------3-----------------------------------|

e|---------------------------------------------------------------------------|
B|--6-3----------------------------------------------------------------------|
G|-------5-3-5h3-5b-3--------------------------------------------------------|  Easy to improvise extra notes
D|--------------------5------------------------------------------------------|
A|---------------------------------------------------------------------------|
E|---------------------------------------------------------------------------|



One day you'll shatter like a wall of glass

    Eb          F
e|---------------------------------------------------------------------------|
B|---------------------------------------------------------------------------|
G|--8------------------------------------------------------------------------|
D|--8-----------3------------------------------------------------------------|
A|--6-----------3------------------------------------------------------------|
E|--------------1------------------------------------------------------------|




************************************

| x   Dead note
| g   Grace note
| (n) Ghost note
| h   Hammer-on
| p   Pull-off
| r   Release
| >   Accented note
| t   Tapping
| b   Bend
| br  Bend release
| pb  Pre-bend
| pbr Pre-bend release
| /   Slide up
| \   Slide down
| ~   Vibrato
| s   Slap
| P   Pop
| PM  Palm mute
| TR  Trill
| N   Tremolo

************************************
Suggest correction
Creating personal tab
Creating personal tab
You can edit any tab online and save it as your Personal.

You can edit, replace or remove any tab part or add personal notes – all changes will be seen only by you.

Personal tabs can be accessed anytime from any device, even offline.
Learn more »
comments
print report bad tab
guest
You may want to rate the tab now too:
select rating
Wanna post a correction for this tab? Suggest correction