Oops, an error
Loading. Please wait.

Wall Of Glass tab

version 2
version 2

Whole song

  • Both rhythm and lead guitar. Will make changes onc... Show more

Video

3,184 views 216 this week
no commentswrite comment
1 2 3 4 5
x 5
add to favorites
×
Save as Personal and add changes to this tab that will be seen only by you. Learn more ›
×
You can save this tab as Personal to edit and correct it or add notes. All changes will be seen only by you. Learn more »
launch autoscroll
font size
0
reset
how to read this tab
guitar tuner
edit
Autoscroll
slow
fast
+/-
esc
set tempo
stop
[Intro]
(Rhythm)
E|-----------------------------------|
B|-----------------------------------|
G|--8-8-8-----------5-5-5------------|
D|--8-8-8-8-8-8-8-8-5-5-5-5-5-5-5-5--| (x2)
A|--6-6-6-8-8-8-8-8-3-3-3-5-5-5-5-5--|
E|--------6-6-6-6-6-------3-3-3-3-3--|

E|---------------------------------------------------------------------------------|
B|---------------------------------------------------------------------------------|
G|--8-8-8-----------7-7-7-12-12-12-12-12-8-8-8-8-8-8-8-8-10-10-10-10-10---7-7-7-5--|
D|--8-8-8-8-8-8-8-8-7-7-7-12-12-12-12-12-8-8-8-8-8-8-8-8-10-10-10-10-10---7-7-7-5--|
A|--6-6-6-8-8-8-8-8-5-5-5-10-10-10-10-10-6-6-6-6-6-6-6-6-8--8--8--8--8----5-5-5-3--|
E|--------6-6-6-6-6----------------------------------------------------------------|

[Lead]
E|--3---3---3---3---3---3----------|
B|--3---3---3---3---3---3----------|
G|--5b7-5b7-5b7-5b7-5b7-5b7b5-3----| (x2)
D|------------------------------5--|
A|---------------------------------|
E|---------------------------------|

E|------3-----3-----3-----3-----3--3---3---3---3---3---3---3---3---3--|
B|------3-----3-----3-----3-----3--3---3---3---3---3---3---3---3---3--|
G|--5b7---5b7---5b7---5b7---5b7----5b7-5b7-5b7-5b7-5b7-5b7=5b7-5b7-5--|
D|--------------------------------------------------------------------|
A|--------------------------------------------------------------------|
E|--------------------------------------------------------------------|

[Harmonica] 
(Optional)
E|------------------------------------|
B|--------15-15-------15-15-------15--|
G|--17b19-------17b19-------17b19-----| (x4)
D|------------------------------------|
A|------------------------------------|
E|------------------------------------|

E|--15~--------------------------------------------------------------------|
B|--18b20~---18p15-----------------------------------------15----15-15-----|
G|-----------------17b19b17--------17-17-17-17-17-17-17-17-17b19----17b19--|
D|--------------------------15-17------------------------------------------|
A|-------------------------------------------------------------------------|
E|-------------------------------------------------------------------------|

[Verse]
E|--3----3-3-3----5----3-----3-3-3----3-3-3----5-----1----|
B|--4----4-4-4----6----3-----4-4-4----4-4-4----6-----1----|
G|--5----5-5-5----7----3-----5-5-5----5-5-5----7-----2----|
D|--5----5-5-5----7----5-----5-5-5----5-5-5----7-----3----|
A|--3----3-3-3----5----5-----3-3-3----3-3-3----5-----3----|
E|---------------------3-----------------------------1----|

[Pre-Chorus]
(Rhythm)
E|-----------------------------------|
B|-----------------------------------|
G|--8-8-8-----------5-5-5------------|
D|--8-8-8-8-8-8-8-8-5-5-5-5-5-5-5-5--| (x2)
A|--6-6-6-8-8-8-8-8-3-3-3-5-5-5-5-5--|
E|--------6-6-6-6-6-------3-3-3-3-3--|

E|-----------------------------------------------------------------------|
B|-----------------------------------------------------------------------|
G|--8-8-8-----------7-7-7-12-12-12-12-12-8-8-8-8-8-8-8-8-10-10-10-10-10--|
D|--8-8-8-8-8-8-8-8-7-7-7-12-12-12-12-12-8-8-8-8-8-8-8-8-10-10-10-10-10--|
A|--6-6-6-8-8-8-8-8-5-5-5-10-10-10-10-10-6-6-6-6-6-6-6-6-8--8--8--8--8---|
E|--------6-6-6-6-6------------------------------------------------------|

[Lead]
E|--3---3---3---3---3---3----------|
B|--3---3---3---3---3---3----------|
G|--5b7-5b7-5b7-5b7-5b7-5b7b5-3----| (x2)
D|------------------------------5--|
A|---------------------------------|
E|---------------------------------|

E|------3-----3-----3-----3-----3--3---3---3---3---3---3---3---3---3--|
B|------3-----3-----3-----3-----3--3---3---3---3---3---3---3---3---3--|
G|--5b7---5b7---5b7---5b7---5b7----5b7-5b7-5b7-5b7-5b7-5b7=5b7-5b7-5--|
D|--------------------------------------------------------------------|
A|--------------------------------------------------------------------|
E|--------------------------------------------------------------------|

[Chorus]
(Rhythm)
E|-----------------------------------|
B|-----------------------------------|
G|--8-8-8-----------5-5-5------------|
D|--8-8-8-8-8-8-8-8-5-5-5-5-5-5-5-5--| (x2)
A|--6-6-6-8-8-8-8-8-3-3-3-5-5-5-5-5--|
E|--------6-6-6-6-6-------3-3-3-3-3--|

E|-----------------------------------------------------------------------|
B|-----------------------------------------------------------------------|
G|--8-8-8-----------7-7-7-12-12-12-12-12-8-8-8-8-8-8-8-8-10-10-10-10-10--|
D|--8-8-8-8-8-8-8-8-7-7-7-12-12-12-12-12-8-8-8-8-8-8-8-8-10-10-10-10-10--|
A|--6-6-6-8-8-8-8-8-5-5-5-10-10-10-10-10-6-6-6-6-6-6-6-6-8--8--8--8--8---|
E|--------6-6-6-6-6------------------------------------------------------|

[Lead]
E|--------------------5---3--------|     |------------------------------------|
B|--6-----8--6--------3---3--------|     |------------------------------------|
G|----7-5------7-5\3--5b7---5p3----|     |-8--8--8--8--10--10--10--10--10b12--|
D|------------------------------3--| (x3)|------------------------------------|
A|---------------------------------|     |------------------------------------|
E|---------------------------------|     |------------------------------------|

[Pre-Verse]
E|-------------------------------------|
B|-------------------------------------|
G|-------------------------------------|
D|--12--10--8--7--5--3--0--------------|
A|------------------------1h3-3-1h3-3--|
E|-------------------------------------|

[Verse 2]
E|--3-3-3----3-3-3----5----3-----3-3-3----3-3-3----5-----1----|
B|--4-4-4----4-4-4----6----3-----4-4-4----4-4-4----6-----1----|
G|--5-5-5----5-5-5----7----3-----5-5-5----5-5-5----7-----2----|
D|--5-5-5----5-5-5----7----5-----5-5-5----5-5-5----7-----3----|
A|--3-3-3----3-3-3----5----5-----3-3-3----3-3-3----5-----3----|
E|-------------------------3-----------------------------1----|

[Pre-Chorus]
(Rhythm)
E|-----------------------------------|
B|-----------------------------------|
G|--8-8-8-----------5-5-5------------|
D|--8-8-8-8-8-8-8-8-5-5-5-5-5-5-5-5--| (x2)
A|--6-6-6-8-8-8-8-8-3-3-3-5-5-5-5-5--|
E|--------6-6-6-6-6-------3-3-3-3-3--|

E|-----------------------------------------------------------------------|
B|-----------------------------------------------------------------------|
G|--8-8-8-----------7-7-7-12-12-12-12-12-8-8-8-8-8-8-8-8-10-10-10-10-10--|
D|--8-8-8-8-8-8-8-8-7-7-7-12-12-12-12-12-8-8-8-8-8-8-8-8-10-10-10-10-10--|
A|--6-6-6-8-8-8-8-8-5-5-5-10-10-10-10-10-6-6-6-6-6-6-6-6-8--8--8--8--8---|
E|--------6-6-6-6-6------------------------------------------------------|

[Lead]
E|--3---3---3---3---3---3----------|
B|--3---3---3---3---3---3----------|
G|--5b7-5b7-5b7-5b7-5b7-5b7b5-3----| (x2)
D|------------------------------5--|
A|---------------------------------|
E|---------------------------------|

E|------3-----3-----3-----3-----3--3---3---3---3---3---3---3---3---3--|
B|------3-----3-----3-----3-----3--3---3---3---3---3---3---3---3---3--|
G|--5b7---5b7---5b7---5b7---5b7----5b7-5b7-5b7-5b7-5b7-5b7=5b7-5b7-5--|
D|--------------------------------------------------------------------|
A|--------------------------------------------------------------------|
E|--------------------------------------------------------------------|

[Chorus]
(Rhythm)
E|-----------------------------------|
B|-----------------------------------|
G|--8-8-8-----------5-5-5------------|
D|--8-8-8-8-8-8-8-8-5-5-5-5-5-5-5-5--| (x2)
A|--6-6-6-8-8-8-8-8-3-3-3-5-5-5-5-5--|
E|--------6-6-6-6-6-------3-3-3-3-3--|

E|-----------------------------------------------------------------------|
B|-----------------------------------------------------------------------|
G|--8-8-8-----------7-7-7-12-12-12-12-12-8-8-8-8-8-8-8-8-10-10-10-10-10--|
D|--8-8-8-8-8-8-8-8-7-7-7-12-12-12-12-12-8-8-8-8-8-8-8-8-10-10-10-10-10--|
A|--6-6-6-8-8-8-8-8-5-5-5-10-10-10-10-10-6-6-6-6-6-6-6-6-8--8--8--8--8---|
E|--------6-6-6-6-6------------------------------------------------------|

[Lead
]
E|--------------------5---3--------|     |------------------------------------|
B|--6-----8--6--------3---3--------|     |------------------------------------|
G|----7-5------7-5\3--5b7---5p3----|     |-8--8--8--8--10--10--10--10--10b12--|
D|------------------------------3--| (x3)|------------------------------------|
A|---------------------------------|     |------------------------------------|
E|---------------------------------|     |------------------------------------|

[Break
]
E|-----------------------------------------11-10-----8-6--|
B|--------------------------------------------x--------x--|
G|-------------------------------------/12----10--/7---7--|
D|--12--10--8--7--5--3--0---------------------------------| (x2)
A|------------------------1h3-3-1h3-3---------------------|
E|--------------------------------------------------------|

[Pre-Chorus]
(Rhythm)
E|-----------------------------------|
B|-----------------------------------|
G|--8-8-8-----------5-5-5------------|
D|--8-8-8-8-8-8-8-8-5-5-5-5-5-5-5-5--| (x2)
A|--6-6-6-8-8-8-8-8-3-3-3-5-5-5-5-5--|
E|--------6-6-6-6-6-------3-3-3-3-3--|

E|-----------------------------------------------------------------------|
B|-----------------------------------------------------------------------|
G|--8-8-8-----------7-7-7-12-12-12-12-12-8-8-8-8-8-8-8-8-10-10-10-10-10--|
D|--8-8-8-8-8-8-8-8-7-7-7-12-12-12-12-12-8-8-8-8-8-8-8-8-10-10-10-10-10--|
A|--6-6-6-8-8-8-8-8-5-5-5-10-10-10-10-10-6-6-6-6-6-6-6-6-8--8--8--8--8---|
E|--------6-6-6-6-6------------------------------------------------------|

[Lead]
E|--3---3---3---3---3---3----------|
B|--3---3---3---3---3---3----------|
G|--5b7-5b7-5b7-5b7-5b7-5b7b5-3----| (x2)
D|------------------------------5--|
A|---------------------------------|
E|---------------------------------|

E|------3-----3-----3-----3-----3--3---3---3---3---3---3---3---3---3--|
B|------3-----3-----3-----3-----3--3---3---3---3---3---3---3---3---3--|
G|--5b7---5b7---5b7---5b7---5b7----5b7-5b7-5b7-5b7-5b7-5b7=5b7-5b7-5--|
D|--------------------------------------------------------------------|
A|--------------------------------------------------------------------|
E|--------------------------------------------------------------------|

[Chorus]
(Rhythm)
E|-----------------------------------|
B|-----------------------------------|
G|--8-8-8-----------5-5-5------------|
D|--8-8-8-8-8-8-8-8-5-5-5-5-5-5-5-5--| (x2)
A|--6-6-6-8-8-8-8-8-3-3-3-5-5-5-5-5--|
E|--------6-6-6-6-6-------3-3-3-3-3--|

E|-----------------------------------------------------------------------|
B|-----------------------------------------------------------------------|
G|--8-8-8-----------7-7-7-12-12-12-12-12-8-8-8-8-8-8-8-8-10-10-10-10-10--|
D|--8-8-8-8-8-8-8-8-7-7-7-12-12-12-12-12-8-8-8-8-8-8-8-8-10-10-10-10-10--|
A|--6-6-6-8-8-8-8-8-5-5-5-10-10-10-10-10-6-6-6-6-6-6-6-6-8--8--8--8--8---|
E|--------6-6-6-6-6------------------------------------------------------|

[Lead]
E|--------------------5---3--------|     |------------------------------------------------|
B|--6-----8--6--------3---3--------|     |------------------------------------------11----|
G|----7-5------7-5\3--5b7---5p3----|     |-8--8--8--8--10--10--10--10--10b12b10-9---12----|
D|------------------------------3--| (x3)|--------------------------------------10--12----|
A|---------------------------------|     |------------------------------------------------|
E|---------------------------------|     |------------------------------------------------|


************************************

| b  Bend
| ~  Vibrato
| p  Pull-off
| \  Slide down
| h  Hammer-on
| x  Dead note
| /  Slide up


************************************

            
            
Suggest correction
Creating personal tab
Creating personal tab
You can edit any tab online and save it as your Personal.

You can edit, replace or remove any tab part or add personal notes – all changes will be seen only by you.

Personal tabs can be accessed anytime from any device, even offline.
Learn more »
comments
print report bad tab
guest
You may want to rate the tab now too:
select rating
Wanna post a correction for this tab? Suggest correction