Oops, an error
Loading. Please wait.

United States Of Whatever Tab

version 2
version 2

Interactive

12,107 views 3 this week
2 commentsread comments
1 2 3 4 5
x 12
add to favorites
launch autoscroll
font size
0
reset
how to read this tab
guitar tuner
Autoscroll
slow
fast
+/-
esc
set tempo
stop
Help us to improve Ultimate-Guitar.com Take our survey!
×
Liam Lynch/Sifl & Olly - Whatever

The E5 chords in this don't have to be played fully, I recommend just setting
ourself up for the G5 but take you index finger off to leave the open E string
and just play that.

[Main Riff]

e|-----------------------------------------|
B|-----------------------------------------|
G|-----------------------------------------|
D|-2-5-6-7-7-7-7-7-2-5-6-7-7-7-7-7-2-5-6-7-|
A|-2-5-6-7-7-7-7-7-2-5-6-7-7-7-7-7-2-5-6-7-|
E|-0-3-4-5-5-5-5-5-0-3-4-5-5-5-5-5-0-3-4-5-|

[Chorus]

e|-------------------------------------|
B|-------------------------------------|
G|-------------------------------------|
D|-------------------------------------|
A|-2-5-6-7-7-7-7-7-2-5-6-7-7-7-7-7-2-5-|
E|-0-3-4-5-5-5-5-5-0-3-4-5-5-5-5-5-0-3-|

e|-----------------------------------------|
B|-----------------------------------------|
G|-----------------------------------------|
D|-10-10-10-10-10-10-10-10-9-9-9-9-9-9-9-9-|
A|-10-10-10-10-10-10-10-10-9-9-9-9-9-9-9-9-|
E|-8--8--8--8--8--8--8--8--7-7-7-7-7-7-7-7-|

repeat both of those for the chorus then back to the main riff.

Lyrics

[Verse 1]
I went down to the beach and saw Kiki and she was all like urgh,
and I'm like, whatever
Then this chick comes up to me and she's all like, hey aren't you that dude,
and I'm like yeah whatever
So later I'm at the pool hall and this girl comes up and she's all like,
aaaah, and I'm like yeah whatever

[Chorus]
Cos this is my united states of whatever
And this is my united states of whatever
And this is my united states of whatever

[Verse 2]
And then it's 3am, I'm on the corner wearing my leather, this dude comes
up and's like hey punk, and I'm like, yeah whatever
Then I'm throwing dice in the alley, officer Leroy comes up and he's like,
hey I thought I told you, and I'm like yeah whatever
Then up comes Sifl and I'm like yo Sifl, what's up, he's like dude,
I'm like that's cool

[Chorus]
Cos this is my united states of whatever
And this is my united states of whatever
Suggest correction
comments
print report bad tab
2 comments total.
0 reply
StreamLine 30 Jan 13, 2003 12:00 AM

great tab andrew..

0 reply
OttovanZanten 92 Feb 08, 2006 02:07 PM

And then up comes Zafo
I'm, like, "yo, Zafo. What's up?"
He's, like, "nothin'"
And I'm, like, "that's cool."

correct lyrics, :P

the tabs are nice

guest
You may want to rate the tab now too:
select rating
Wanna post a correction for this tab? Suggest correction