Oops, an error
Loading. Please wait.

Strip That Down bass

2,770 views 177 this week
1 commentread comment
1 2 3 4 5
x 3
add to favorites
×
Save as Personal and add changes to this tab that will be seen only by you. Learn more ›
×
You can save this tab as Personal to edit and correct it or add notes. All changes will be seen only by you. Learn more »
launch autoscroll
font size
0
reset
guitar tuner
edit
Autoscroll
slow
fast
+/-
esc
set tempo
stop
Artist: Liam Payne 
Song: Strip That Down
Tabbed by camrhyswebb
Tuned to Drop D

[Intro]
G|---------------------------|
D|---------------------------|
A|--------------3-4-3-2-3----|
D|-1--3-4---0----------------| (x2)

[Verse 1]
"You know I've been taking some time..."
G|---------------------------|
D|---------------------------|
A|--------------3-4-3-2-3----|
D|-1--3-4---0----------------| (x4)

[Pre-Chorus 1]
"You know I used to be in 1D..."
G|---------------------------|
D|---------------------------|
A|--------------3-4-3-2-3----|
D|-1--3-4---0----------------| (x4)

[Chorus 1]
"You know I love it when the music's loud..."
G|---------------------------|
D|---------------------------|
A|--------------3-4-3-2-3----|
D|-1--3-4---0----------------| (x6)

[Verse 2]
"You know that since the day I met you..."
G|---------------------------|
D|---------------------------|
A|--------------3-4-3-2-3----|
D|-1--3-4---0----------------| (x4)

[Pre-Chorus 2]
"You now I used to be in 1D..."
G|---------------------------|
D|---------------------------|
A|--------------3-4-3-2-3----|
D|-1--3-4---0----------------| (x4)

[Chorus 2]
"You know I love it when the music's loud..."
G|-------------|
D|-------------|
A|-------------|
D|-1--3-4---0--| (x4)

"Oh strip that down girl..."
G|---------------------------|
D|---------------------------|
A|--------------3-4-3-2-3----|
D|-1--3-4---0----------------| (x4)

[Verse 3] 
(Quavo)
"She gon' strip it down for a thug yeah..."
G|---------------------------|
D|---------------------------|
A|--------------3-4-3-2-3----|
D|-1--3-4---0----------------|

G|-------------|
D|-------------|
A|-------------|
D|-1--3-4---0--|

G|---------------------------|
D|---------------------------|
A|--------------3-4-3-2-3----|
D|-1--3-4---0----------------| (x2)

[Chorus 3/Outro]
"You know I love it when the music's loud..."
G|---------------------------|
D|---------------------------|
A|--------------3-4-3-2-3----|
D|-1--3-4---0----------------| (x8)

            
            
Suggest correction
Creating personal tab
Creating personal tab
You can edit any tab online and save it as your Personal.

You can edit, replace or remove any tab part or add personal notes – all changes will be seen only by you.

Personal tabs can be accessed anytime from any device, even offline.
Learn more »
Give kudos to tab author, rate the tab!
1 2 3 4 5
comments
print report bad tab
1 comment total.
0 reply
janvictoriavelasco 10 Sep 11, 2017 10:57 PM

didn't like this contribution

guest
You may want to rate the tab now too:
select rating
Wanna post a correction for this tab? Suggest correction