Oops, an error
Loading. Please wait.

I Say A Little Prayer Chords

version 1
version 1

Live

Whole song

10 views 10 this week
no commentswrite comment
1 2 3 4 5
3 more votes to show rating
add to favorites
launch autoscroll
font size
0
reset
transpose
0
reset
simplify chords
display chords
guitar tuner
Autoscroll
slow
fast
+/-
esc
set tempo
stop
Help us to improve Ultimate-Guitar.com Take our survey!
×
Source on YouTube: https://www.youtube.com/watch?v=QyRMD0ZXW68

Chords:
[Verse]
    Em9   Am9   D9   Gmaj7   Cmaj9   B7sus4   B7
e|------------------------------------------------|
B|---7----12----5------3-------3------(0)-----(0)-|
G|---7----12----5------4-------4-------2-------2--|
D|---5----10----4------4-------2-------2-------1--|
A|---7----12----5--------------3-------2-------2--|
E|---0-----------------3--------------------------|

[Chorus]
    Cmaj9   D9   Em9   G9   G6/9              Cmaj9   B7#9   B7b9
e|--------------------------------|         |--------------------|   
B|----3-----5-----7----10----10---|         |---3------3------1--|
G|----4-----5-----7----10-----9---|  (x3)   |---4------2------2--|
D|----2-----4-----5-----9-----9---|         |---2------1------1--|
A|----3-----5-----7----10----10---|         |---3------2------2--|
E|----------------0---------------|         |--------------------|

(3rd time between D9 and Em9 is Ebmaj7#9)
e|--------|
B|----7---|
G|----7---|
D|----5---|
A|----6---|
E|--------|

[Bridge]
    Em9   Am9  D9   Gmaj9   C9   Gmaj9   C9
e|-------------------------------------------|
B|---7----12---5-----10-----15----10------3--|
G|---7----12---5-----11-----15----11------3--|
D|---5----10---4------9-----14-----9------2--|
A|---7----12---5-----10-----15----10------3--|
E|---0---------------------------------------|

Repeat Gmaj9 C9, but alternate C9 with octave
End bridge on Gmaj9



[Intro]
Em9


[Verse]
Em9          Am9
The moment I wake up
             D9    Gmaj9
Before I put on my makeup
  Cmaj9                   B7sus4  B7
I say a little prayer for you

Em9              Am9
While combing my hair, now,
                   D9       Gmaj9
And wondering what dress to wear, now,
  Cmaj9                   B7sus4  B7
I say a little prayer for you


[Chorus]
Cmaj9        D9                   Em9    
Forever, and ever, you stay in my heart
           G9   G6/9
and I will love you

Cmaj9        D9                  Em9
Forever, and ever, we never will part
             G9   G6/9
Oh, how I'll love you

Cmaj9       D9         Ebmaj7#9    Em9
Together, together, is how it must be
            G9  G6/9
To live without you
      Cmaj9                  B7#9       B7#9 B7b9
Would only be heartbreak for me


[Verse]
Em9           Am9 
I run for the bus, dear,
                   D9       Gmaj9
And while riding I think of us, dear,
  Cmaj9                   B7sus4  B7
I say a little prayer for you.

Em9            Am9
At work I just take time
                   D9     Gmaj9
And all through my coffee break-time,
  Cmaj9                   B7sus4  B7
I say a little prayer for you


[Chorus]
Cmaj9        D9                   Em9    
Forever, and ever, you stay in my heart
           G9   G6/9
and I will love you

Cmaj9        D9                  Em9
Forever, and ever, we never will part
             G9   G6/9
Oh, how I'll love you

Cmaj9       D9         Ebmaj7#9    Em9
Together, together, is how it must be
            G9  G6/9
To live without you
      Cmaj9                  B7#9       B7#9 B7b9
Would only be heartbreak for me

 
[Bridge]
Em9          Am9        
My darling believe me,
             D9                          Gmaj9              
For me there is no one no one no one but you
C9             Gmaj9                   
Please love me too
C9               Gmaj9
I'm in love with you  
C9        Gmaj9
Answer my prayers now baby
C9              Gmaj9
Say you love me too
C9        Gmaj9
Answer my prayers now baby, yeah


[Chorus]
Cmaj9        D9                   Em9    
Forever, and ever, you stay in my heart
           G9   G6/9
and I will love you

Cmaj9        D9                  Em9
Forever, and ever, we never will part
             G9   G6/9
Oh, how I'll love you

Cmaj9       D9         Ebmaj7#9    Em9
Together, together, is how it must be
            G9  G6/9
To live without you
      Cmaj9                  B7#9       Em9
Would only be heartbreak for me
Suggest correction
Give kudos to tab author, rate the tab!
1 2 3 4 5
comments
print report bad tab
guest
You may want to rate the tab now too:
select rating
Wanna post a correction for this tab? Suggest correction