Oops, an error
Loading. Please wait.

Is Your Love Big Enough Tab

version 1
version 1

Whole song

Interactive

12,335 views 42 this week
no commentswrite comment
1 2 3 4 5
1 last vote to show rating
add to favorites
launch autoscroll
font size
0
reset
how to read this tab
guitar tuner
×
Best way to learn
"Is Your Love Big Enough"
Autoscroll
slow
fast
+/-
esc
set tempo
stop
Author
Difficulty
  follow
intermediate
(Guitar Figure 1)
     B*                                 E*                      A*
e|-------------------------------------------------------------------|
B|-------------------------------------------------------------------|
G|*-----------------------------------------------------------------*|
D|*--13------13------13------13---------6-----6-----6-----6-----11--*|
A|---14----------14------14------14--9--7--------7-----7-----7--12---|
E|-------14--------------------------------7-------------------------|

 (Guitar Figure 2)
      D* E*
e|--------------------------------|
B|--------------------------------|
G|*------------------------------*|
D|*---4--6-----6-----6-----6-----*|
A|----5--7--------7-----7-----7---|
E|----------7---------------------|

[Intro]
(Guitar Figure 1) (x2)
     B*                                 E*                      A*
e|-------------------------------------------------------------------|
B|-------------------------------------------------------------------|
G|*-----------------------------------------------------------------*|
D|*--13------13------13------13---------6-----6-----6-----6-----11--*|
A|---14----------14------14------14--9--7--------7-----7-----7--12---|
E|-------14--------------------------------7-------------------------|

[Verse]
(Guitar Figure 1)
     B*                                 E*                      A*
e|-------------------------------------------------------------------|
B|-------------------------------------------------------------------|
G|*-----------------------------------------------------------------*|
D|*--13------13------13------13---------6-----6-----6-----6-----11--*|
A|---14----------14------14------14--9--7--------7-----7-----7--12---|
E|-------14--------------------------------7-------------------------|


Found myself in the second-

(Guitar Figure 1)
     B*                                 E*                      A*
e|-------------------------------------------------------------------|
B|-------------------------------------------------------------------|
G|*-----------------------------------------------------------------*|
D|*--13------13------13------13---------6-----6-----6-----6-----11--*|
A|---14----------14------14------14--9--7--------7-----7-----7--12---|
E|-------14--------------------------------7-------------------------|


I found myself in the second-hand guitar

(Guitar Figure 1)
     B*                                 E*                      A*
e|-------------------------------------------------------------------|
B|-------------------------------------------------------------------|
G|*-----------------------------------------------------------------*|
D|*--13------13------13------13---------6-----6-----6-----6-----11--*|
A|---14----------14------14------14--9--7--------7-----7-----7--12---|
E|-------14--------------------------------7-------------------------|


Never thought it would happen

(Guitar Figure 1)
     B*                                 E*                      A*
e|-------------------------------------------------------------------|
B|-------------------------------------------------------------------|
G|*-----------------------------------------------------------------*|
D|*--13------13------13------13---------6-----6-----6-----6-----11--*|
A|---14----------14------14------14--9--7--------7-----7-----7--12---|
E|-------14--------------------------------7-------------------------|


But I found myself in the second-hand guitar

[Pre-Chorus]

 (Guitar Figure 2)
      D* E*
e|--------------------------------|
B|--------------------------------|
G|*------------------------------*|
D|*---4--6-----6-----6-----6-----*|
A|----5--7--------7-----7-----7---|
E|----------7---------------------|

    So I've just got to know

 (Guitar Figure 2)
      D* E*
e|--------------------------------|
B|--------------------------------|
G|*------------------------------*|
D|*---4--6-----6-----6-----6-----*|
A|----5--7--------7-----7-----7---|
E|----------7---------------------|

    I truly have to know

 (Guitar Figure 2)
      D* E*
e|--------------------------------|
B|--------------------------------|
G|*------------------------------*|
D|*---4--6-----6-----6-----6-----*|
A|----5--7--------7-----7-----7---|
E|----------7---------------------|           E*

    So you've got to let me know

[Chorus]

(Guitar Figure 1) (x2)
     B*                                 E*                      A*
e|-------------------------------------------------------------------|
B|-------------------------------------------------------------------|
G|*-----------------------------------------------------------------*|
D|*--13------13------13------13---------6-----6-----6-----6-----11--*|
A|---14----------14------14------14--9--7--------7-----7-----7--12---|
E|-------14--------------------------------7-------------------------|


Is your love            big enough for what's to come?

(Guitar Figure 1) (x2)
     B*                                 E*                      A*
e|-------------------------------------------------------------------|
B|-------------------------------------------------------------------|
G|*-----------------------------------------------------------------*|
D|*--13------13------13------13---------6-----6-----6-----6-----11--*|
A|---14----------14------14------14--9--7--------7-----7-----7--12---|
E|-------14--------------------------------7-------------------------|

  Got so hot in the city that I forgot everything I was looking for

(Guitar Figure 1) (x2)
     B*                                 E*                      A*
e|-------------------------------------------------------------------|
B|-------------------------------------------------------------------|
G|*-----------------------------------------------------------------*|
D|*--13------13------13------13---------6-----6-----6-----6-----11--*|
A|---14----------14------14------14--9--7--------7-----7-----7--12---|
E|-------14--------------------------------7-------------------------| 

  Make my way to the dance floor and I danced 'til I wasn't drunk anymore

[Pre-Chorus]

 (Guitar Figure 2) (x2)
      D* E*
e|--------------------------------|
B|--------------------------------|
G|*------------------------------*|
D|*---4--6-----6-----6-----6-----*|
A|----5--7--------7-----7-----7---|
E|----------7---------------------|

    So I've just got to know

 (Guitar Figure 2)
      D* E*
e|--------------------------------|
B|--------------------------------|
G|*------------------------------*|
D|*---4--6-----6-----6-----6-----*|
A|----5--7--------7-----7-----7---|
E|----------7---------------------|

I truly have to know

 (Guitar Figure 2)
      D* E*
e|--------------------------------|
B|--------------------------------|
G|*------------------------------*|
D|*---4--6-----6-----6-----6-----*|
A|----5--7--------7-----7-----7---|
E|----------7---------------------|

So you've got to let me know

[Chorus]

(Guitar Figure 1) (x2)
     B*                                 E*                      A*
e|-------------------------------------------------------------------|
B|-------------------------------------------------------------------|
G|*-----------------------------------------------------------------*|
D|*--13------13------13------13---------6-----6-----6-----6-----11--*|
A|---14----------14------14------14--9--7--------7-----7-----7--12---|
E|-------14--------------------------------7-------------------------|

Is your love            big enough for what's to come?

(Guitar Figure 1)
     B*                                 E*                      A*
e|-------------------------------------------------------------------|
B|-------------------------------------------------------------------|
G|*-----------------------------------------------------------------*|
D|*--13------13------13------13---------6-----6-----6-----6-----11--*|
A|---14----------14------14------14--9--7--------7-----7-----7--12---|
E|-------14--------------------------------7-------------------------|

Is your love big enough?

[Bridge]
(Chords)
D6b5     7x677x
C#b5     6x566x
N.C.
Underground, underground
With the friends I've found, friends I've found
D6b5         C#6b5 - D6b5
Underground, under - ground
         D6b5         C#6b5 - D6b5  
With the friends I've found,  friends I've found

[play: Guitar Figure 1]  (x2)

(Guitar Figure 1)
     B*                                 E*                      A*
e|-------------------------------------------------------------------|
B|-------------------------------------------------------------------|
G|*-----------------------------------------------------------------*|
D|*--13------13------13------13---------6-----6-----6-----6-----11--*|
A|---14----------14------14------14--9--7--------7-----7-----7--12---|
E|-------14--------------------------------7-------------------------|

I scream

(Guitar Figure 1)
     B*                                 E*                      A*
e|-------------------------------------------------------------------|
B|-------------------------------------------------------------------|
G|*-----------------------------------------------------------------*|
D|*--13------13------13------13---------6-----6-----6-----6-----11--*|
A|---14----------14------14------14--9--7--------7-----7-----7--12---|
E|-------14--------------------------------7-------------------------|

I scream

(Guitar Figure 1)
     B*                                 E*                      A*
e|-------------------------------------------------------------------|
B|-------------------------------------------------------------------|
G|*-----------------------------------------------------------------*|
D|*--13------13------13------13---------6-----6-----6-----6-----11--*|
A|---14----------14------14------14--9--7--------7-----7-----7--12---|
E|-------14--------------------------------7-------------------------|

On Second Avenue

(Guitar Figure 1)
     B*                                 E*                      A*
e|-------------------------------------------------------------------|
B|-------------------------------------------------------------------|
G|*-----------------------------------------------------------------*|
D|*--13------13------13------13---------6-----6-----6-----6-----11--*|
A|---14----------14------14------14--9--7--------7-----7-----7--12---|
E|-------14--------------------------------7-------------------------|

I scream on Second Avenue

[Chorus]
Is your love big enough for what's to come?
Is your love big enough?
Is your love big enough for what's to come?
Is your love big enough for what's to come?


(play:  D6b5  C#b5 - D6b5)  (x2)

[Ending]
D6b5


************************************

| *  Natural harmonic

************************************
Suggest correction
Give kudos to tab author, rate the tab!
1 2 3 4 5
comments
print report bad tab
guest
You may want to rate the tab now too:
select rating
Wanna post a correction for this tab? Suggest correction