Oops, an error
Loading. Please wait.

Lost And Found Tab

version 1
version 1

Whole song

Interactive

1,038 views 3 this week
no commentswrite comment
1 2 3 4 5
please rate
add to favorites
launch autoscroll
font size
0
reset
how to read this tab
guitar tuner
Tab Pro tools
  • play this tab
  • loop segment
  • change instrument
  • show fretboard
  • metronome
Autoscroll
slow
fast
+/-
esc
set tempo
stop
Contributor
Difficulty
intermediate
-----------------------------------------------------------------------------
			     Lost And Found - Lianne La Havas
-----------------------------------------------------------------------------
Tabbed by: Liam
E-mail: l1am_163@hotmail.com

Tuning: Standard


e|-----------------|-----------------|-----------------|-----------------|
B|-----------------|--5~~~~~~~~~~~---|-----1~~~~~~~~~~~|-----5~~~~~~~~~~~|
G|-----7~~~~~~~~~~~|--5~~~~~~~~~~~---|----0~~~~~~~~~~~-|----5~~~~~~~~~~~-|
D|----7~~~~~~~~~~~-|--5~~~~~~~~~~~---|---3~~~~~~~~~~~--|---3~~~~~~~~~~~--|
A|---8~~~~~~~~~~~--|-----------------|--3~~~~~~~~~~~---|--5~~~~~~~~~~~-0-|
E|--6~~~~~~~~~~~---|-5~~~~~~---------|-----------------|-----------------|


e|-----------------|-----------------|-----------------|-----------------|
B|-----------------|-----5~~~~~~~~~~~|--------1~~~~~~~~|--------5~~~~~~~~|
G|-----7~~~~~~~~~~~|----5~~~~~~~~~~~-|------0~~~~~~~~~~|------5~~~~~~~~~~|
D|----7~~~~~~~~~~~-|---5~~~~~~~~~~~--|----3~~~~~~~~~~~-|----3~~~~~~~~~~~-|
A|---8~~~~~~~~~~~--|-----------------|--3~~~~~~~~~~~---|--5~~~~~~~~~~~---|
E|--6~~~~~~~~~~~---|--5~~~~~~~~~~~---|-----------------|-----------------|


e|-----------------|-----------------|-----------------|-----------------|
B|-----------------|-----5~~~~~~~~~~~|--------1~~~~~~~~|--------5~~~~~~~~|
G|-----7~~~~~~~~~~~|----5~~~~~~~~~~~-|------0~~~~~~~~~~|------5~~~~~~~~~~|
D|----7~~~~~~~~~~~-|---5~~~~~~~~~~~--|----3~~~~~~~~~~~-|----3~~~~~~~~~~~-|
A|---8~~~~~~~~~~~--|-----------------|--3~~~~~~~~~~~---|--5~~~~~~~~~~~--0|
E|--6~~~~~~~~~~~---|--5~~~~~~~~~~~---|-----------------|-----------------|


e|-----------------|-----------------|-----------------|-----------------|
B|-----------------|-----5---5---5-x-|-----1---1---1-x-|-----5---5---5---|
G|-----7---7---7-x-|----5----5---5-x-|----0----0---0-x-|----5----5---5---|
D|----7----7---7-x-|---5-----5---5-x-|---3-----3---3-x-|---3-----3---3---|
A|---8-----8---8-x-|-----------------|--3----3---3---x-|--5----5---5---0-|
E|--6----6---6---x-|--5----5---5---x-|-----------------|-----------------|


e|-----------------|-----------------|-----------------|-----------------|
B|-----------------|-----5---5---5-x-|-----1---1---1-x-|-----5---5---5---|
G|-----7---7---7-x-|----5----5---5-x-|----0----0---0-x-|----5----5---5---|
D|----7----7---7-x-|---5-----5---5-x-|---3-----3---3-x-|---3-----3---3---|
A|---8-----8---8-x-|-----------------|--3----3---3---x-|--5----5---5---0-|
E|--6----6~--6---x-|--5----5---5---x-|-----------------|-----------------|


e|-----------------|-----------------|-----------------|-----------------|
B|-----------------|-----5~~~~~~~~~~~|--------1~~~~~~~~|--------5~~~~~~~~|
G|-----------------|----5~~~~~~~~~~~-|------0~~~~~~~~~~|------5~~~~~~~~~~|
D|-----------------|---5~~~~~~~~~~~--|----3~~~~~~~~~~~-|----3~~~~~~~~~~~-|
A|-----------------|-----------------|--3~~~~~~~~~~~---|--5~~~~~~~~~~~--0|
E|--6~~~~~~~~~~~---|--5~~~~~~~~~~~---|-----------------|-----------------|


e|-----------------|-----------------|-----------------|-----------------|
B|-----------------|-----5---5---5-x-|-----1---1---1-x-|-----5---5---5---|
G|-----7---7---7-x-|----5----5---5-x-|----0----0---0-x-|----5----5---5---|
D|----7----7---7-x-|---5-----5---5-x-|---3-----3---3-x-|---3-----3---3---|
A|---8-----8---8-x-|-----------------|--3----3---3---x-|--5----5---5---0-|
E|--6----6---6---x-|--5----5---5---x-|-----------------|-----------------|


e|-----------------|-----------------|-----------------|-----------------|
B|-----------------|-----5---5---5-x-|-----1---1---1-x-|-----5---5---5---|
G|-----7---7---7-x-|----5----5---5-x-|----0----0---0-x-|----5----5---5---|
D|----7----7---7-x-|---5-----5---5-x-|---3-----3---3-x-|---3-----3---3---|
A|---8-----8---8-x-|-----------------|--3----3---3---x-|--5----5---5---0-|
E|--6----6~--6---x-|--5----5---5---x-|-----------------|-----------------|


e|-----------------|-----------------|-----------------|-----------------|
B|-----------------|-----5---5---5-x-|-----1---1---1-x-|-----5---5---5---|
G|-----7---7---7-x-|----5----5---5-x-|----0----0---0-x-|----5----5---5---|
D|----7----7---7-x-|---5-----5---5-x-|---3-----3---3-x-|---3-----3---3---|
A|---8-----8---8-x-|-----------------|--3----3---3---x-|--5----5---5---0-|
E|--6----6---6---x-|--5----5---5---x-|-----------------|-----------------|


e|-----------------------------------------------------------------------|
B|----3~~~-----8~~~-----3~~~------5----5---5--------3----3---3-----------|
G|---2~~~-----7~~~-----2~~~------5-----5---5-------3-----3---3-----------|
D|--3~~~-----8~~~-----3~~~------3------3---3------1------1---3-----------|
A|-1~~~-----6~~~-----1~~~------5----5------------3-----------------------|
E|------------------------1--------------5------------3----3---3---3---3-|



e|-----------------------------------------------------------------------|
B|----3~~~-----8~~~-----3~~~------5----5---5--------3----3---3-----------|
G|---2~~~-----7~~~-----2~~~------5-----5---5-------3-----3---3-----------|
D|--3~~~-----8~~~-----3~~~------3------5---5------1------3---3-----------|
A|-1~~~-----6~~~-----1~~~------5-----------------3-----------------------|
E|------1--------6--------1---------5----5------------3----3---3---3---3-|


e|----------|
B|-----3~~~-|
G|----3~~~--|
D|---2~~~---|
A|--3~~~----|
E|----------|


e|-----------------------------------------------------------------------|
B|-----------------------3---3---3-x-------------------------3---3---3-x-|
G|-----7---7---7-x------3----3---3-x-------7---7---7-x------3----3---3-x-|
D|----7----7---7-x-----2-----2---2-x------7----7---7-x-----2-----2---2-x-|
A|---8-----8---8-x----3----3---3---x-----8-----8---8-x----3----3---3---x-|
E|--6----6---6---x----------------------6----6---6---x-------------------|


e|----------------------------------------------------|
B|------------------3~~~~----------------------3~~~~--|
G|-----7~~~~-------3~~~~--------7~~~~---------3~~~~---|
D|----7~~~~-------2~~~~--------7~~~~---------2~~~~----|
A|---8~~~~-------3~~~~--------8~~~~---------3~~~~-----|
E|--6~~~~--------------------6~~~~--------------------|


e|-----------------------------------------------------------------------|
B|-----------------------3---3---3-x-------------------------5---5---5-x-|
G|-----7---7---7-x------3----3---3-x-------7---7---7-x------5----5---5-x-|
D|----7----7---7-x-----2-----2---2-x------7----7---7-x-----3-----3---3-x-|
A|---8-----8---8-x----3----3---3---x-----8-----8---8-x----5----5---5---x-|
E|--6----6---6---x----------------------6----6---6---x-------------------|


e|-----------------|-----------------|-----------------|-----------------|
B|-----------------|-----5---5---5-x-|-----1---1---1-x-|-----5---5---5---|
G|-----7---7---7-x-|----5----5---5-x-|----0----0---0-x-|----5----5---5---|
D|----7----7---7-x-|---5-----5---5-x-|---3-----3---3-x-|---3-----3---3---|
A|---8-----8---8-x-|-----------------|--3----3---3---x-|--5----5---5---0-|
E|--6----6---6---x-|--5----5---5---x-|-----------------|-----------------|


e|-----------------|-----------------|-----------------|-----------------|
B|-----------------|-----5---5---5-x-|-----1---1---1-x-|-----5---5---5---|
G|-----7---7---7-x-|----5----5---5-x-|----0----0---0-x-|----5----5---5---|
D|----7----7---7-x-|---5-----5---5-x-|---3-----3---3-x-|---3-----3---3---|
A|---8-----8---8-x-|-----------------|--3----3---3---x-|--5----5---5---0-|
E|--6----6---6---x-|--5----5---5---x-|-----------------|-----------------|


e|-----------------|-----------------|-----------------|-----------------|
B|-----------------|-----------------|-----------------|--5~~~~--------5-|
G|-----7---7---7-x-|-----7---7---7-x-|-----7---7---7-x-|--5~~~~-------5--|
D|----7----7---7-x-|----7----7---7-x-|----7----7---7-x-|--3~~~~------3---|
A|---8-----8---8-x-|---8-----8---8-x-|---8-----8---8-x-|--5~~~3--4--5----|
E|--6----6---6---x-|--6----6---6---x-|--6----6---6-----|-----------------|
comments
We did not receive enough feedback on this tab! Please rate:
print report bad tab
1 2 3 4 5
I want to post or [tab]
guest
You may want to rate the tab now too:
select rating
Please do not post tabs as comments. Select "correction" instead!