Oops, an error
Loading. Please wait.

No Room For Doubt Tab

version 1
version 1

Whole song

Interactive

36,164 views 54 this week
5 commentsread comments
1 2 3 4 5
x 17
add to favorites
launch autoscroll
font size
0
reset
how to read this tab
guitar tuner
Autoscroll
slow
fast
+/-
esc
set tempo
stop
Help us to improve Ultimate-Guitar.com Take our survey!
×
Author
Difficulty
intermediate
Interesting chords, more complex than it sounds; I recommend giving it a listen or 
two to get sense of the rhythm. 

[Intro and Verses 1, 2]

   Ab / C#maj7      Bb / D#maj7   Ab / C#maj7    Bb / D#maj7       
e-------------------------------------------------------------|
b---6--6---6--6----8--8---8--8----6--6---6--6----8--8---8--8--|
g---5--5---5--5----7--7---7--7----5--5---5--5----7--7---7--7--| x3
d---6--6---6--6----8--8---8--8----6--6---6--6----8--8---8--8--|
a-----3---3--3-------5---6--5-------3---3--3-------5---6--5---|
e--4--------------6--------------4--------------6-------------|

1. You caught me, guilty, taking the pieces of you
2. I tip toe, too slow, out of the door to your house


[Bridge]

   Ab / C#maj7     Bb / D#maj7   Fm          Bb
e------------------------------------------------------------|
b---6--6---6--6----8--8---8--8----1--1---1--1---6--6---6--6--|
g---5--5---5--5----7--7---7--7----1--1---1--1---7--7---7--7--|
d---6--6---6--6----8--8---8--8----2--2---2--2---8--8---8--8--|
a-----3---3--3-------5---6--5------2---2---2------6---6--6---|
e--4--------------6--------------1------------6--------------|

I could go solo, would that be the right thing to do


[Chorus]

   Ab / C#maj7      Gm7          Fm         Bb
e--------------------------------------------------------|
b---6---6---6---6----3--3--3--3---1-1--1--1---6-6--6--6--|
g---5---5---5---5----3--3--3--3---1-1--1--1---7-7--7--7--| x2
d---6---6---6---6----3--3--3--3---2-2--2--2---8-8--8--8--| 
a------3---3---3-------5--5--5-----2--2--2-----6--6--6---|
e--4----------------3------------1-----------6-----------|

We all make mistakes, we do. I learn from you    


[Verse 3]

   Cm7            Ab          Gm7    Fm
e-------------------------------------------|
b---8---8--8---8---4--4--4--4--3--3---1--1--|
g---8---8--8---8---5--5--5--5--3--3---1--1--| x4
d---8---8--8---8---6--6--6--6--3--3---3--3--|
a-----10-----10------6-----6-----5------3---|
e--8------8-------4-----4-----3------1------|

Please sleep softly, leave me no room for doubt...


[Chorus]

   Ab / C#maj7      Gm7          Fm         Bb
e--------------------------------------------------------|
b---6---6---6---6----3--3--3--3---1-1--1--1---6-6--6--6--|
g---5---5---5---5----3--3--3--3---1-1--1--1---7-7--7--7--| x4
d---6---6---6---6----3--3--3--3---2-2--2--2---8-8--8--8--|
a------3---3---3-------5--5--5-----2--2--2-----6--6--6---|
e--4----------------3------------1-----------6-----------|

We all make mistakes, we do. I learn from you    


[Verse 4]

   Cm7            Ab          Gm7    Fm
e-------------------------------------------|
b---8---8--8---8---4--4--4--4--3--3---1--1--|
g---8---8--8---8---5--5--5--5--3--3---1--1--| x4
d---8---8--8---8---6--6--6--6--3--3---3--3--|
a-----10-----10------6-----6-----5------3---|
e--8------8-------4-----4-----3------1------|

Please sleep softly, leave me no room for doubt...

It ends on a Cm7 chord after verse 4.


[Lyrics]

[Intro and Verse 1]
You caught me, guilty Taking the pieces of you 
That night, you took flight I couldn't decide what to do 
I won't let a safe bet Continue to make me go blue 

[Bridge]
I could go solo Would that be the right thing to do?

[Chorus 1]
We all make mistakes, we do I learnt from you 
We all make mistakes, we do I learnt from you

[Verse 2] (same as verse 1)
I tiptoe, too slow Out of the door to your house 
I know you know That this way leads me out 
Outside, too bright You're within I'm without 
You're within 

[Chorus 1]
We all make mistakes, we do I learnt from you 
We all make mistakes, we do I learnt from you 

[Verse 3]
Please sleep softly Leave me no room for doubt x4
Leave me no room for doubt

[Chorus 2]
We all make mistakes, we do I learnt from you 
We all make mistakes, we do I learnt from you 

[Verse 4] (same as verse 3)
Please sleep softly Leave me no room for doubt x4
Leave me no room for doubt

===================================================================
A great song from a talented new musician. :)
Tabbed by Jobizzie
Suggest correction
comments
print report bad tab
5 comments total. Showing first comments.
0 reply
01chardw 97 Jul 28, 2012 04:29 AM

been looking for ages for a tab for this, thanks!

+3 reply
its_all_fwag 10 Mar 28, 2013 08:56 PM

you have the chords right but i found the rhythm to be off. i figured it out in her live performance ( http://www.youtube.com/watch?feature=endscreen&NR=1&v=Vl84HI9yIoI ) which took me ages to figure out the pattern but when you get it, it'll stick.

e-------------------------------------------------
b---6--6---6--6--6---6----8--8---8---8--8---8-----
g---5--5---5--5--5---5----7--7---7---7--7---7-----
d---6--6---6--6--6---6----8--8---8---8--8---8-----
a--------3----3----3-----------5-----6----5-------
e---4---------------------4-----------------------

the rest of the rhythm is played like that throughout the song

+6 reply
rens.findhammer 10 Apr 26, 2013 12:23 PM

shouldn't all the 2's in the Fm in the chorus be 3's? (as it is an Fm played as a regular first fret bar chord)

guest
You may want to rate the tab now too:
select rating
Wanna post a correction for this tab? Suggest correction