Oops, an error
Loading. Please wait.

No Room For Doubt Tab

version 2
version 2

Whole song

Interactive

4,676 views 90 this week
no commentswrite comment
1 2 3 4 5
excellent!
x 7
add to favorites
launch autoscroll
font size
0
reset
how to read this tab
guitar tuner
Tab Pro tools
  • play this tab
  • loop segment
  • change instrument
  • show fretboard
  • metronome
Autoscroll
slow
fast
+/-
esc
set tempo
stop
Contributor
Difficulty
intermediate
                                  ~~~~~~~~~~~~~~~~~~~~~~~~~~~~~~~~~~~~~~~~
                                              No Room For Doubt
                                               Lianne La Havas
                                           Is Your Love Big Enough?
                                  ~~~~~~~~~~~~~~~~~~~~~~~~~~~~~~~~~~~~~~~~
Tabbed by: Connor O.
Tuning: Standard



This is a tab of the LaBlogotheque Take Away Show performance. 
(https://www.youtube.com/watch?v=f845_v41YFo)

A beautiful song and my favorite Take Away Show. 

Comment with ideas/corrections. Please rate my tab.



Intro:


  0:38
            
e|------------------------------------------------|
B|-6---6---6---6---6---6---8---8---8---8---8---8--|
G|-5---5---5---5---5---5---7---7---7---7---7---7--| x7
D|-6---6---6---6---6---6---8---8---8---8---8---8--|
A|-------3-----3-----3-----------5-----6-----5----|
E|-4-----------------------6----------------------|


  1:14

e|------------------------|
B|-6---6---6---6---6---6--|
G|-5---5---5---5---5---5--| 
D|-6---6---6---6---6---6--| X2
A|-------3-----3-----3----|
E|-4----------------------|


  1:19

e|------------------------------------------------|
B|-6---6---6---6---6---6---8---8---8---8---8---8--|
G|-5---5---5---5---5---5---7---7---7---7---7---7--| 
D|-6---6---6---6---6---6---8---8---8---8---8---8--|
A|-------3-----3-----3-----------5-----6-----5----|
E|-4-----------------------6----------------------|


  1:24

e|------------------------|
B|-6---6---6---6---6---6--|
G|-5---5---5---5---5---5--| 
D|-6---6---6---6---6---6--| X2
A|-------3-----3-----3----|
E|-4----------------------|



Verse 1:

  
  1:30
  You caught me, guilty, taking the pieces of you 
  That night, you took flight, I couldn't decide what to do 
  I won't let, a safe bet, continue to make me go blue 
e|------------------------------------------------|
B|-6---6---6---6---6---6---8---8---8---8---8---8--|
G|-5---5---5---5---5---5---7---7---7---7---7---7--| X6
D|-6---6---6---6---6---6---8---8---8---8---8---8--|
A|-------3-----3-----3-----------5-----6-----5----|
E|-4---------------------6------------------------|



Bridge:

   
  2:00
  I could go, solo, would that be the right thing to do?
e|------------------------------------------------------------------------------------------------|
B|-6---6---6---6---6---6---8---8---8---8---8---8---1---1---1---1---1---1---6---6---6---6---6---6--|
G|-5---5---5---5---5---5---7---7---7---7---7---7---1---1---1---1---1---1---7---7---7---7---7---7--|
D|-6---6---6---6---6---6---8---8---8---8---8---8---3---3---3---3---3---3---8---8---8---8---8---8--|
A|-------3-----3-----3-----------5-----6-----5-----------3-----3-----3-----------8-----8-----8----|
E|-4-----------------------6-----------------------1-----------------------6----------------------|



Chorus:


  2:11
  We all make mistakes, it's true, I learned from you
e|------------------------------------------------------------------------------------------------|
B|-6---6---6---6---6---6---3---3---3---3---3---3---1---1---1---1---1---1---6---6---6---6---6---6--|
G|-5---5---5---5---5---5---3---3---3---3---3---3---1---1---1---1---1---1---7---7---7---7---7---7--| X2
D|-6---6---6---6---6---6---3---3---3---3---3---3---3---3---3---3---3---3---8---8---8---8---8---8--|
A|-------3-----3-----3-----------5-----5-----5-----------3-----3-----3-----------8-----8-----8----|
E|-4-----------------------3-----------------------1-----------------------6----------------------|



Verse 2:


  2:31
  I tiptoe, too slow, out of the door to your house 
  I know, you know, that this way leads me out 
  Outside, too bright, you're within I'm without  
e|------------------------------------------------|
B|-6---6---6---6---6---6---8---8---8---8---8---8--|
G|-5---5---5---5---5---5---7---7---7---7---7---7--| X6
D|-6---6---6---6---6---6---8---8---8---8---8---8--|
A|-------3-----3-----3-----------5-----6-----5----|
E|-4---------------------6------------------------|


  2:57

e|-------------|
B|---6------6--|
G|---5------5--| 
D|---6------6--|
A|-------------|
E|---4------4--|


  2:59
  You're within
e|------------------------|
B|-6---6---6---6---6---6--|
G|-5---5---5---5---5---5--| 
D|-6---6---6---6---6---6--|
A|-------3-----3-----3----|
E|-4----------------------|



Chorus:


  3:02
  We all make mistakes, it's true, I learned from you
e|------------------------------------------------------------------------------------------------|
B|-6---6---6---6---6---6---3---3---3---3---3---3---1---1---1---1---1---1---6---6---6---6---6---6--|
G|-5---5---5---5---5---5---3---3---3---3---3---3---1---1---1---1---1---1---7---7---7---7---7---7--| X2
D|-6---6---6---6---6---6---3---3---3---3---3---3---3---3---3---3---3---3---8---8---8---8---8---8--|
A|-------3-----3-----3-----------5-----5-----5-----------3-----3-----3-----------8-----8-----8----|
E|-4-----------------------3-----------------------1-----------------------6----------------------|
                                   

  3:23

e|------------------------|
B|-6---6---6---6---6---6--|
G|-7---7---7---7---7---7--| 
D|-8---8---8---8---8---8--|
A|-------8-----8-----8----|
E|-6----------------------|
                                   


Verse 3:

  
  3:25
  Please sleep, softly, leave me no room for doubt
e|-------------------------------------------------------------------|
B|-8---8---8---8---8---8---4---4---4---4---4---4---3---3-----6---6---|
G|-8---8---8---8---8---8---5---5---5---5---5---5---3---3-----7---7---| 
D|-8---8---8---8---8---8---6---6---6---6---6---6---3---3-----8---8---|
A|-------10----10----10----------6-----6-----6-----------5---------8-|
E|-8-----------------------4-----------------------3---------6-------|


  3:33
  Please sleep, softly, leave me no room for doubt
e|-------------------------------------------------------------------|
B|-8---8---8---8---8---8---4---4---4---4---4---4---3---3-----1---1---|
G|-8---8---8---8---8---8---5---5---5---5---5---5---3---3-----1---1---| 
D|-8---8---8---8---8---8---6---6---6---6---6---6---3---3-----3---3---|
A|-------10----10----10----------6-----6-----6-----------5---------3-|
E|-8-----------------------4-----------------------3---------1-------|


  3:40
  Please sleep, softly, leave me no room for doubt
e|-------------------------------------------------------------------|
B|-8---8---8---8---8---8---4---4---4---4---4---4---3---3-----6---6---|
G|-8---8---8---8---8---8---5---5---5---5---5---5---3---3-----7---7---| 
D|-8---8---8---8---8---8---6---6---6---6---6---6---3---3-----8---8---|
A|-------10----10----10----------6-----6-----6-----------5---------8-|
E|-8-----------------------4-----------------------3---------6-------|


  3:48
  Please sleep, softly, leave me no room for doubt
e|------------------------------------------------------------------------|
B|-8---8---8---8---8---8---4---4---4---4---4---4---3---3---3---3---3---3--|
G|-8---8---8---8---8---8---5---5---5---5---5---5---3---3---3---3---3---3--| 
D|-8---8---8---8---8---8---6---6---6---6---6---6---3---3---3---3---3---3--|
A|-------10----10----10----------6-----6-----6-----------5-----5-----5----|
E|-8-----------------------4-----------------------3----------------------|


  3:56
  Leave me no room for doubt
e|--------------------------------------------------------------------|
B|-3---3---3---3---2---1---1---1---1---1---1--------------------------|
G|-3---3---3---3---2---1---1---1---1---1---1---7----------------------| 
D|-3---3---3---3---2---3---3---3---3---3---3---8----------------------|
A|-------5-----5---4---3---3-----3-----3-------8----------------------|
E|-3-------------------------------------------6------6------6-----6--|



Chorus:


  4:05
  We all make mistakes, we do, I learned from you
e|------------------------------------------------------------------------------------------------|
B|-6-----------------------3-----------------------1---1---1---1---1---1---6---6---6---6---6---6--|
G|-5-----------------------3-----------------------1---1---1---1---1---1---7---7---7---7---7---7--| 
D|-6-----------------------3-----------------------3---3---3---3---3---3---8---8---8---8---8---8--|
A|-------------------------------------------------------3-----3-----3-----------8-----8-----8----|
E|-4-----------------------3-----------------------1-----------------------6----------------------|
 

  4:17
  We all make mistakes, we do, I learned from you
e|------------------------------------------------------------------------------------------------|
B|-6---6---6---6---6---6---3---3---3---3---3---3---1---1---1---1---1---1---6---6---6---6---6---6--|
G|-5---5---5---5---5---5---3---3---3---3---3---3---1---1---1---1---1---1---7---7---7---7---7---7--| X3
D|-6---6---6---6---6---6---3---3---3---3---3---3---3---3---3---3---3---3---8---8---8---8---8---8--|
A|-------3-----3-----3-----------5-----5-----5-----------3-----3-----3-----------8-----8-----8----|
E|-4-----------------------3-----------------------1-----------------------6----------------------|
                        

  4:47

e|-----------------------|
B|---6-------------------|
G|---7-------------------| 
D|---8-------------------|
A|-----------------------|
E|---6------6------------|           



Verse 4:


  4:50
  Please sleep, softly, leave me no room for doubt
e|-------------------------------------------------------------------|
B|-8---8---8---8---8---8---4---4---4---4---4---4---3---3-----6---6---|
G|-8---8---8---8---8---8---5---5---5---5---5---5---3---3-----7---7---| 
D|-8---8---8---8---8---8---6---6---6---6---6---6---3---3-----8---8---|
A|-------10----10----10----------6-----6-----6-----------5---------8-|
E|-8-----------------------4-----------------------3---------6-------|


  4:58
  Please sleep, softly, leave me no room for doubt
e|-------------------------------------------------------------------|
B|-8---8---8---8---8---8---4---4---4---4---4---4---3---3-----1---1---|
G|-8---8---8---8---8---8---5---5---5---5---5---5---3---3-----1---1---| 
D|-8---8---8---8---8---8---6---6---6---6---6---6---3---3-----3---3---|
A|-------10----10----10----------6-----6-----6-----------5---------3-|
E|-8-----------------------4-----------------------3---------1-------|


  5:05
  Please sleep, softly, leave me no room for doubt
e|----------------------------------------------------------------------|
B|-8---8---8---8---8---8---4---4---4---4---4---4---6---6---6---6---6----|
G|-8---8---8---8---8---8---5---5---5---5---5---5---7---7---7---7---7----| 
D|-8---8---8---8---8---8---6---6---6---6---6---6---8---8---8---8---8----|
A|-------10----10----10----------6-----6-----6-----------8-----------8--|
E|-8--------------------4--------------------------6-----------6--------|


  5:13
  Please sleep, softly, leave me no room for doubt
e|------------------------------------------------------------------------|
B|-8---8---8---8---8---8---4---4---4---4---4---4---3---3---3---3---3---3--|
G|-8---8---8---8---8---8---5---5---5---5---5---5---3---3---3---3---3---3--| 
D|-8---8---8---8---8---8---6---6---6---6---6---6---3---3---3---3---3---3--|
A|-------10----10----10----------6-----6-----6-----------5-----5-----5----|
E|-8-----------------------4-----------------------3----------------------|


  5:21
  Leave me no room for doubt
e|------------------------------------------|
B|-3---3---3---3---2---1---1---1---1---1----|
G|-3---3---3---3---2---1---1---1---1---1----| 
D|-3---3---3---3---2---3---3---3---3---3----|
A|-------5-----5---4---3-----3-----3-----3--|
E|-3----------------------------------------|



Outro:


  5:25

e|-------------------------------------------------------------------|
B|-8---8---8---8---8---8---4---4---4---4---4---4---3---3-----1---1---|
G|-8---8---8---8---8---8---5---5---5---5---5---5---3---3-----1---1---| X4
D|-8---8---8---8---8---8---6---6---6---6---6---6---3---3-----3---3---|
A|-------10----10----10----------6-----6-----6-----------5---------3-|
E|-8-----------------------4-----------------------3---------1-------|


  5:56
 
e|------------------------------------------------------------------------|
B|-8---8---8---8---8---8---4---4---4---4---4---4---3---3---3---3---3---3--|
G|-8---8---8---8---8---8---5---5---5---5---5---5---3---3---3---3---3---3--| 
D|-8---8---8---8---8---8---6---6---6---6---6---6---3---3---3---3---3---3--|
A|-------10----10----10----------6-----6-----6-----------5-----5-----5----|
E|-8-----------------------4-----------------------3----------------------|


  6:04

e|--------------------------------------------------------------------|
B|-3---3---3---3---2---1---1---1---1---1-----------6------------------|
G|-3---3---3---3---2---1---1---1---1---1---------7--------------------| 
D|-3---3---3---3---2---3---3---3---3---3-------8----------------------|
A|-------5-----5---4---3-----3-----3-----3----------------------------|
E|-3-----------------------------------------6------------6------6----|


  6:14

e|---4------6------8---|
B|---6------6------8---|
G|---5------7------8---| 
D|---6------8------8---|
A|---x------8------10--|
E|---4------6------8---|           
comments
print report bad tab
I want to post or [tab]
guest
You may want to rate the tab now too:
select rating
Please do not post tabs as comments. Select "correction" instead!