Oops, an error
Loading. Please wait.

Other Side Of Mt Heart Attack tab

version 2
version 2

Whole song

  • A slightly easier version than the previous.
by Liars
46 views 9 this week
no commentswrite comment
1 2 3 4 5
3 more votes to show rating
add to favorites
×
Save as Personal and add changes to this tab that will be seen only by you. Learn more ›
×
You can save this tab as Personal to edit and correct it or add notes. All changes will be seen only by you. Learn more »
launch autoscroll
font size
0
reset
how to read this tab
guitar tuner
edit
Autoscroll
slow
fast
+/-
esc
set tempo
stop
Author
About this tab version
A slightly easier version than the previous. Was this info helpful? Yes No
The Liars clearly play this in alternate tuning.

Drop the high E string to B

[Verse]

e|--------12--------7---------5---------5---------|
B|----12---------7---------5---------5------------|
G|------------------------------------------------|
D|------------------------------------------------|
A|------------------------------------------------|
E|------------------------------------------------|
                           I        won't

e|--------12--------7---------5---------5---------|
B|----12---------7---------5---------5------------|
G|------------------------------------------------|
D|------------------------------------------------|
A|------------------------------------------------|
E|------------------------------------------------|
      run        far.      I        won't                           

e|--------12--------7---------5---------5---------|
B|----12---------7---------5---------5------------|
G|------------------------------------------------|
D|------------------------------------------------|
A|------------------------------------------------|
E|------------------------------------------------|
      run        far.      I        won't           

e|--------12--------7---------5---------5---------|
B|----12---------7---------5---------5------------|
G|------------------------------------------------|
D|------------------------------------------------|
A|------------------------------------------------|
E|------------------------------------------------|
      run        far.      I        can

e|--------12--------7---------5---------5---------|
B|----12---------7---------5---------5------------|
G|------------------------------------------------|
D|------------------------------------------------|
A|------------------------------------------------|
E|------------------------------------------------|
      always  be found.    I        can                     

e|--------12--------7---------5---------5---------|
B|----12---------7---------5---------5------------|
G|------------------------------------------------|
D|------------------------------------------------|
A|------------------------------------------------|
E|------------------------------------------------|
      always  be found.    


e|--------12--------7---------5---------5---------|
B|----12---------7---------5---------5------------|
G|------------------------------------------------|
D|------------------------------------------------|
A|------------------------------------------------|
E|------------------------------------------------|
      Ahhh......            If       you ne...

e|--------12--------7---------5---------5---------|
B|----12---------7---------5---------5------------|
G|------------------------------------------------|
D|------------------------------------------------|
A|------------------------------------------------|
E|------------------------------------------------|
      ed         me,         If      you ne...

e|--------12--------7---------5---------5---------|
B|----12---------7---------5---------5------------|
G|------------------------------------------------|
D|------------------------------------------------|
A|------------------------------------------------|
E|------------------------------------------------|
      ed         me,         I       can           

e|--------12--------7---------5---------5---------|
B|----12---------7---------5---------5------------|
G|------------------------------------------------|
D|------------------------------------------------|
A|------------------------------------------------|
E|------------------------------------------------|
      always  be found.    I        can             

e|--------12--------7---------5---------5---------|
B|----12---------7---------5---------5------------|
G|------------------------------------------------|
D|------------------------------------------------|
A|------------------------------------------------|
E|------------------------------------------------|
      always  be found.    

e|--------12--------7---------5---------5---------|
B|----12---------7---------5---------5------------|
G|------------------------------------------------|
D|------------------------------------------------|
A|------------------------------------------------|
E|------------------------------------------------|
      Ahhh......            If  you  want 

e|--------12--------7---------5---------5---------|
B|----12---------7---------5---------5------------|
G|------------------------------------------------|
D|------------------------------------------------|
A|------------------------------------------------|
E|------------------------------------------------|
      me to      stay      If   you want

e|--------12--------7---------5---------5---------|
B|----12---------7---------5---------5------------|
G|------------------------------------------------|
D|------------------------------------------------|
A|------------------------------------------------|
E|------------------------------------------------|
      me to      stay      If   you want

e|--------12--------7---------5---------5---------|
B|----12---------7---------5---------5------------|
G|------------------------------------------------|
D|------------------------------------------------|
A|------------------------------------------------|
E|------------------------------------------------|
      me to      stay      I will    stay

e|--------12--------7---------5---------5---------|
B|----12---------7---------5---------5------------|
G|------------------------------------------------|
D|------------------------------------------------|
A|------------------------------------------------|
E|------------------------------------------------|
      by your    side.     I will    stay

e|--------12--------7---------5---------5---------|
B|----12---------7---------5---------5------------|
G|------------------------------------------------|
D|------------------------------------------------|
A|------------------------------------------------|
E|------------------------------------------------|
      by your    side.     I will    stay

e|--------12--------7---------5---------5---------|
B|----12---------7---------5---------5------------|
G|------------------------------------------------|
D|------------------------------------------------|
A|------------------------------------------------|
E|------------------------------------------------|
      by your    side.     

e|--------12--------7---------5---------5---------|
B|----12---------7---------5---------5------------|
G|------------------------------------------------|
D|------------------------------------------------|
A|------------------------------------------------|
E|------------------------------------------------|
      Ahhh...              

e|--------12--------7---------5---------5---------|
B|----12---------7---------5---------5------------|
G|------------------------------------------------|
D|------------------------------------------------|
A|------------------------------------------------|
E|------------------------------------------------|
      Ahhh...              I          won't

e|--------12--------7---------5---------5---------|
B|----12---------7---------5---------5------------|
G|------------------------------------------------|
D|------------------------------------------------|
A|------------------------------------------------|
E|------------------------------------------------|
      run        far.      I        won't           

e|--------12--------7---------5---------5---------|
B|----12---------7---------5---------5------------|
G|------------------------------------------------|
D|------------------------------------------------|
A|------------------------------------------------|
E|------------------------------------------------|
      run        far.      I        won't           

e|--------12--------7---------5---------5---------|
B|----12---------7---------5---------5------------|
G|------------------------------------------------|
D|------------------------------------------------|
A|------------------------------------------------|
E|------------------------------------------------|
      run        far.      I        can

e|--------12--------7---------5---------5---------|
B|----12---------7---------5---------5------------|
G|------------------------------------------------|
D|------------------------------------------------|
A|------------------------------------------------|
E|------------------------------------------------|
      always  be found.    I        can             

e|--------12--------7---------5---------5---------|
B|----12---------7---------5---------5------------|
G|------------------------------------------------|
D|------------------------------------------------|
A|------------------------------------------------|
E|------------------------------------------------|
      always  be found.    I        can             

e|--------12--------7---------5---------5---------|
B|----12---------7---------5---------5------------|
G|------------------------------------------------|
D|------------------------------------------------|
A|------------------------------------------------|
E|------------------------------------------------|
      always  be found.               



            
            
Suggest correction
Creating personal tab
Creating personal tab
You can edit any tab online and save it as your Personal.

You can edit, replace or remove any tab part or add personal notes – all changes will be seen only by you.

Personal tabs can be accessed anytime from any device, even offline.
Learn more »
Give kudos to tab author, rate the tab!
1 2 3 4 5
comments
print report bad tab
guest
You may want to rate the tab now too:
select rating
Wanna post a correction for this tab? Suggest correction