Oops, an error
Loading. Please wait.

Cicuta Tab

version 2
version 2

Whole song

735 views 1 this week
no commentswrite comment
1 2 3 4 5
3 more votes to show rating
add to favorites
launch autoscroll
font size
0
reset
how to read this tab
guitar tuner
Autoscroll
slow
fast
+/-
esc
set tempo
stop
Help us to improve Ultimate-Guitar.com Take our survey!
×
Hola esta es mi primera colaboracion espero q les guste,
 el solo le falta pero ya se los estare mandando.
 cualquier consulta escribanme a msn
 manuel14_79@hot...
y que viva el rock peruano

intro
  Bm               A#
e--7-------7--------6------6---------|
b--7----------7-----6----------6-----|
g--7----7-----------7---7------------|
d--9----------------8----------------|
a--9----------------8----------------|
E--7----------------6----------------|(BIS)

RIFF PRINCIPAL
    Rapio    normal     rapido    normal
-------------------------------------------------|
-------------------------------------------------|
---9b^-9b^-----9-7--------9b^-9b^------9-7-------|
------------------9~-----------------------8~----|
-------------------------------------------------|
-------------------------------------------------|(bis)
  se acompaña con las notas Bm A#

  Ya no me trates mal
  Me esta sangrando el cuerpo
  Entiende por favor
  Lo que yo estoy pidiendo

  Voy buscando un lugar
  Donde pueda descansar
  Mira donde estoy……
    Rapio    normal     rapido    normal
-------------------------------------------------|
-------------------------------------------------|
---9b^-9b^-----9-7--------9b^-9b^------9-7-------|
------------------9~-----------------------8~----|
-------------------------------------------------|
-------------------------------------------------|(bis)

Quiero que seas mi prostituta natural
me dejare robar
Llévate mi sangre para brindar
Heee heeea heee heea...

E|--1s12~----|
B|--1s12~----|
G|--1s12~----|
D|--1s12~----|
A|--1s12~----|
E|--1s12~----|
se rasguea rapido pero lo arrastras lento asta
llegar altraste 12 tienes que oir la cancion para guiarte


e ----12------12--|
b -12-----12------|
g ----------------|

esta parte si se arrastras un poco mas rapido
E|--1s12~----|
B|--1s12~----|
G|--1s12~----|
D|--1s12~----|
A|--1s12~----|
E|--1s12~----|


solo:
e|------------------------------------------------------------------|
B|--(12) full--12b-12b----12b^-12b^---12b^-12b^--12b^-12b^-12b^^~---|
G|--------------------12~----------12~--------12~-------------------|
D|------------------------------------------------------------------|
A|------------------------------------------------------------------|
-
esto lo ase la seunda guitarra
E --12-------12------12--------12--------12------12-------|
B ------14-------14-------14--------13-------13-------13—-|(bis)


   Rapio    normal     rapido    normal
-------------------------------------------------|
-------------------------------------------------|
---9b^-9b^-----9-7--------9b^-9b^------9-7-------|
------------------9~-----------------------8~----|
-------------------------------------------------|
-------------------------------------------------|(bis)

Voy buscando un lugar
Donde pueda descansar
Mira donde estoy……

Quiero que seas mi prostituta natural
me dejare robar
Llévate mi sangre para brindaaaar

ponganle ganas y veran que les sale¡

b^ :estirar la cuerda haia arriba
b^^:estirr la cuerda y dejar sonar durante 1seg mas
 ~ :aser vibrar la cuerda
 s :arrastrar sin soltar la cuerda
Suggest correction
Give kudos to tab author, rate the tab!
1 2 3 4 5
comments
print report bad tab
guest
You may want to rate the tab now too:
select rating
Wanna post a correction for this tab? Suggest correction