Oops, an error
Loading. Please wait.

Como Estas Tab

286 views 1 this week
no commentswrite comment
1 2 3 4 5
please rate
add to favorites
launch autoscroll
font size
0
reset
how to read this tab
guitar tuner
Autoscroll
slow
fast
+/-
esc
set tempo
stop
Help us to improve Ultimate-Guitar.com Take our survey!
×
Contributor
Difficulty
novice
Libido- Como estas tab By Malakian 18


1 guitar:

|------------------------12-------------------------------------12------|
|----12----------------12-----------------12------------------12--------|
|--11----------------11-----------------11------------------11----------|
|------10------------------------------------10-------------------------|
|-----------------------------------------------------------------------|
|-----------------------------------------------------------------------|

2 guitar

|---------------------0-----0-----------------0-------0----------------0-|
|--------4----4----4------4------4----4-----4-------4------4----4----4---|
|------4----4----4------4------4----4-----4-------4------4----4----4-----|
|------------------------------------------------------------------------|
|------------------------------------------------------------------------|
|------------------------------------------------------------------------|


1 guitar:

|--------------------12---------------------|
|------------------12-----------------------|
|----------------11-------------------------|
|-------------------------------------------|
|-------------------------------------------|
|-------------------------------------------|

2 guitar

|------------------0------------------------|
|------4----4----4------4-----4----4-----4--|
|----3----3----3------3-----3----3-----3----|
|-------------------------------------------|
|-------------------------------------------|
|-------------------------------------------|


...it can be that

arpegio (3) se toca rapido

|-------2-------2-------2--------------|
|---------4-------4-------4------------|
|----3--------3-------3------3-----3---|
|--------------------------------------|
|--------------------------------------|
|--------------------------------------|

   B                 F#     C#m
(Ahhhh)   Como estas (turututú)

E       Em
como estas
B                        F#
Te entregaste al saber tu nombre
         C#m       E
Quisiste verme como tu
          B
Sentiste renacer

B                        F#
Me enseñaste tus ojos negros
      C#m         E
Y entonaste esa canción
         Em               B
Te entendí tal como eres

            F#
Y entregaste tanto
 C#m           E
Me mostraste tu calor
          Em
Y ahora no puedes ver
B       C#m        E
Por ti será mejor
  Em                B
Que no busques más vuelve como antes
   F#
 Sin más
       E
Como estas..

B                  F#  C#m
(Ahhhh)   Como estas (turututú)

E     Em
como estas
B                        F#
Hoy sentiste tus ojos solos
C#m         E
Preguntaste como tu
      Em          B
Podrías verme para siempre

            F#
Y entregaste tanto
C#m            E
Me mostraste tu calor
          Em             B		Final
Y ahora no puedes ver
					8 times
 B      C#       E            |---7------9-----11------12-------------|
Por ti será mejor            |---7------9-----11------12--------------|
   Em                   B        |------------------------------------|
Que no busques más fuerte como antes    |-----------------------------|
    F#                      |-----------------------------------------|
 Sin más                 |--------------------------------------------|
       E
Como estas
        B               C#m
Perdóname si te he hecho daño,
E       Em
tanto daño. Tanto daño, tanto daño
	B          G#/B
Perdóname, tanto daño
        G/B        F#/B
perdóname como estás.
comments
We did not receive enough feedback on this tab! Please rate:
print report bad tab
1 2 3 4 5
I want to post or [tab]
guest
You may want to rate the tab now too:
select rating
Please do not post tabs as comments. Select "correction" instead!