Oops, an error
Loading. Please wait.

Como Un Perro bass

version 1
version 1

Whole song

Interactive

by Libido
5,352 views 6 this week
2 commentsread comments
1 2 3 4 5
3 more votes to show rating
add to favorites
×
Save as Personal and add changes to this tab that will be seen only by you. Learn more ›
×
You can save this tab as Personal to edit and correct it or add notes. All changes will be seen only by you. Learn more »
launch autoscroll
font size
0
reset
guitar tuner
edit
Autoscroll
slow
fast
+/-
esc
set tempo
stop
&EL BAJO ENTRA UN TIEMPO DESPUES DE LA GUITARRA

 G.-------------------------------------------------|
 D.-----2---0---------------------------------------|
 A.-----------2---0-----------------3-------7-------|
 E.------------------3-------5----------------------|

&Verso:

 G.--------------------|
 D.--------------------|
 A.-----5---3----7-----|
 E.--3-----------------|

&CORO:

 G.-------------------------------|
 D.-------------------------------|
 A.--------5-5-5--3-3-3-7-7-7-----|
 E.--3-3-3------------------------|

&Bueno asi es toda la canción pero 
 luego en la parte del solo don de 
 la 1era guitarra hace en punteo se 
 aloca y hace el bajo asi:
 
 G.----------------------------------------|
 D.----------------------------------------|
 A.--------------------0/7-7-7-7-----------|
 E.--------0---0---------------------------|

 G.----------------------------------------|
 D.----------------------------------------|
 A.--------------------0/7-7-7-7-----------|
 E.--------0---0---------------------------|

&y luego cuando esta en la nota mi la baja: 

 G.-----------------------------------------|
 D.-----------------------------------------|
 A.--------------0/7-7-7-7-----2------------|
 E.------0--0-------------------------------|

=Aqui va la letra:

*VERSOS:
 ------
Discutes sin razón quieres llevar el control
en tus manos no, no , no voy a bailar
Me haces sentir mal luego yo pido perdon
siendo tu la unica culpable de la situación

No soy tu esclavo solo se que yo te amo
no me trates como un perro me quitare solo el sombrero
Y mis manos que haran si tu piel me hace falta
ya no tengo ni un amigo, Dios es mi unico testigo

*CORO:
 ----
Que puedo hacer para que me ames 
como yo te amo... como yo te amo
Que puedo hacer para que me extrañes
como yo te extraño...como yo te extraño

*SOLO: 
 ----

*Rep.CORO:
 --- ----

*VERSO FINAL:
 ----- -----
No quiero escribir más canciones que te aturdan 
mis poemas no los lees dime Dios que me invento
Como te enamorare si ya todo lo he intentado
dime que es lo que a faltado 
dime en que te he defraudado    oh ..oh 


La última cosa el bajista para en la parte
despues de repetir el coro y en la parte que 
dice 'Comote enamorare....' empieza así:

G.-------------------------------------------------|
D.-----3---0---------------------------------------|
A.-----------3---0----------5-------3-------7------|
E.------------------3------------------------------|

            
            
Suggest correction
Creating personal tab
Creating personal tab
You can edit any tab online and save it as your Personal.

You can edit, replace or remove any tab part or add personal notes – all changes will be seen only by you.

Personal tabs can be accessed anytime from any device, even offline.
Learn more »
Give kudos to tab author, rate the tab!
1 2 3 4 5
comments
print report bad tab
2 comments total.
0 reply
given.alexander 10 Oct 19, 2013 08:41 PM

pesimo esto!

0 reply
metin2.mx.peru 12 Sep 11, 2017 11:41 PM

INTRO REAL
G.---------------------------------------------------------------------|
D.--2--0---------------------------------------------------------------|
A.--------2--0-----------------------3-33333-------7-7777---10---12----|
E.--------------3--333333---5--555555----------------------------------|

guest
You may want to rate the tab now too:
select rating
Wanna post a correction for this tab? Suggest correction