Oops, an error
Loading. Please wait.

Culpable Tab

version 1
version 1

Whole song

590 views 1 this week
no commentswrite comment
1 2 3 4 5
please rate
add to favorites
launch autoscroll
font size
0
reset
how to read this tab
guitar tuner
Autoscroll
slow
fast
+/-
esc
set tempo
stop
Help us to improve Ultimate-Guitar.com Take our survey!
×
Author
Intro:
       G                  Em           C              G
|-------12-12----------10-12-----------10--------------------------|
|---12--12-12-------12----12------10p12--12-12h10------------------|
|---12--------12-12-------------------------------12-12------------|
|---12-------------------------------------------------------------|
|------------------------------------------------------------------|
|------------------------------------------------------------------|
       G                  Em           C              G
|----10----10----10-12--15-15-15-15-17-15---19-18-17--15-----------|
|-------12-12-12-12-12--15-15-15-15-17-15--------------------------|
|-------------------------------------------19-18-17--16-----------|
|------------------------------------------------------------------|
|------------------------------------------------------------------|
|------------------------------------------------------------------|

DE AHI VIENE ESTA ESTROFA
G                    Em      C                    G      (F#//G)
No me he sentido culpable  de no entregarte un poco más
|--7------------------------8---------------------------6p7------|
|--8------------------------8---------------------------7p8------|
|--7------------------------9---------------------------6p7------|
|----------------------------------------------------------------|
|----------------------------------------------------------------|
|----------------------------------------------------------------|

G                     Em        C           G          G//D G//D
de haber llegado muy tarde      y de tener que explicar
|-----------------------8--------------------|
|-----------------------8--------------------|
|-----------------------9--------------------|
|--------------------------------------------|
|--------------------------------------------|
|--------------------------------------------|

de ahi sigue este riff X2 veces
|------------------------------|
|------------------------------|
|-----------------------   ----|RIFF1
|------------------------------|
|--4p5-5-5-5-5-5-5-------------|
|------------------------------|


G                    Em          C                   G       (F#//G)
No me he sentido culpable        de no acercarme un poco más
|--7-----------------7-----------8-----------------7-----------6p7---------|
|--8-----------------8-----------8-----------------8-----------7p8---  ----|(RIFF2)
|--7-----------------9-----------9-----------------7-----------6p7---------|
|--------------------------------------------------------------------------|
|--------------------------------------------------------------------------|
|--------------------------------------------------------------------------|


G                  Em      C              G    G//D G//D
de relajar mi semblante    y defender mi lugar
|--7-----------------7-----------8---------7-----------|
|--8-----------------8-----------8---------8-----------|
|--7-----------------9-----------9---------7-----------|
|------------------------------------------------------|
|------------------------------------------------------|
|------------------------------------------------------|

SE REPITE EL RIFF1   X2

G         Em       C       G         G         Em       C
Estoy pensando en ir,y no puedo     Estoy tratando de ver algo mejor
|---7---7---7---7---8---8---7---7---7---7---7---7---8---8--------|
|----8-8-8-8-8-8-8-8-8-8-8-8-8-8-8-8-8-8-8-8-8-8-8-8-8-8-8-8-----|   ES EL RIFF2 PERO EN
|-----7---7---9---9---9---9---7---7---7---7---9---9---9---9------|    ARPEGIO
|----------------------------------------------------------------|
|----------------------------------------------------------------|
|----------------------------------------------------------------|


DE AHI VIENE ESTE TOQUE    (RIFF 3)
        Em        A                Em          A
|-------------------------------------------------------|
|-------------------------------------------------------|
|-------------------------------------------------------|
|-------------0-------------------------0-2-------------|
|-----------2---4-2-0-----------------2-----4-2-0-2-----|
|---0-0-1p3-----------3-------0-0-1p3-------------------|

   Em           A             D#
|------------------------------------------------------------|
|------------------------------------------------------------|
|------------------------------------------------------------|
|-------------0---------------1h0-0-1-3-1-0-0-1-3-1-1h0------|
|-----------2---4-2-0------------3---------3-----------------|
|---0-0-1p3-----------3--------------------------------------|

        D
|-----------10----10-10-----------|
|----7-7/10----10----10-----------|
|---7-----------------------------|
|--7------------------------------|
|---------------------------------|
|---------------------------------|

Y LUEGO ESTE RIFF QUE ES MUY PARECIDO AL INTRO SOLO VARIA AL INICIO
{G-Em-C-G}x2 G//D G//D
|---10----10----10-12------------10---------------------------|
|---12-12-12-12-12-12-------10p12--12-12h10-------------------|
|------------12-----------------------------12-12-------------|
|-------------------------------------------------------------|
|-------------------------------------------------------------|
|-------------------------------------------------------------|

|----10----10----10-12--15-15-15-15-17-15---19-18-17--15-------|
|-------12-12-12-12-12--15-15-15-15-17-15----------------------|
|-------------------------------------------19-18-17--16-------|
|--------------------------------------------------------------|
|--------------------------------------------------------------|
|--------------------------------------------------------------|


SE REPITEN LOS RIFF Y ARPEGIOS PARA LA 2DA ESTROFA

G         Em      C            G
Estoy pensando en ti y no me afecta
G         Em       C          G
Estoy tratando de ver algo mejor

G                    Em
No me he sentido culpable
C             G         (F#//G)
de alejarme así nada más
G                   Em
perdona se me hizo tarde
C                     Em
quizá me tenga que largar

SE REPITE EL RIFF 3 Y EL INTRO
Suggest correction
Give kudos to tab author, rate the tab!
1 2 3 4 5
comments
print report bad tab
guest
You may want to rate the tab now too:
select rating
Wanna post a correction for this tab? Suggest correction