Oops, an error
Loading. Please wait.

El Vampiro Tab

version 1
version 1

Whole song

375 views 1 this week
no commentswrite comment
1 2 3 4 5
please rate
add to favorites
launch autoscroll
font size
0
reset
how to read this tab
guitar tuner
Autoscroll
slow
fast
+/-
esc
set tempo
stop
Help us to improve Ultimate-Guitar.com Take our survey!
×
Author
Acordes:
   D   D*  Gm  A   F   C   E
e|-2---2---3---0---1---0---0--|
B|-3---3---3---2---1---1---0--|
G|-2---3---3---2---2---0---1--|  ( )= opcionales
D|-0------(5)-(2)--3---2---2--|
A|--------(5)-(0)--3---3---2--|
E|--------(3)------1-------0--|

D,D*,Gm,A

Regrese jadeando al cuello mas delgado
e|-3-2----------------|
B|-----3--------------|
G|-------2------------|whammy bar
para lamer tus manos sigo siendo el vampiro
del amoooooooooor.... de tu amoooooooooor...
e|2-3-2---2-3-2-----2-3-2------|
B|------3----------------------|
G|--------------2/3-------3/2--|

De las niñas suaves me puedo enamorar
cuando me dicen 'te amo' me pueden transformar
B|-2/3-3-3-3-(sigan repitiendo el -3-)-3/2-2-2-2...

Gm       F       C         F
Quise volar mi nave espacial
  E           A
para no verte mas...

D,D*,Gm,A
e|-2-3------------------|
B|-----3----------------|
G|---------2/3----5/2---|

La ciencia no puede pegar mi alma rota
e|-3-2----------------|
B|-----3--------------|
G|-------2------------|whammy bar
ni descifrar mis sueños de mis ganas de morderte
un poco maaaaaaaaas... un poco maaaaaaaaaaas...
B|-2/3-3-3-3-(sigan repitiendo el -3-)-3/2-2-2-2...

Quise volar mi nave espacial
para no verte mas...

luego viene esto (el 1ro lo tocan 1 vez, el 2do 2 veces)

1ro:e|-2-3-5-----------------  2do:e|-2-5-3------------------|
    B|-------2-5-3-0--2--3--2      B|-------2-3-5-0--2--3--2-|
    G|-----------------------      G|------------------------|
    D|-0---------------------      D|-0----------------------|
    A|-------0--------0--2--0      A|-------0--------0--2--0-|
    E|-------------3---------      E|-------------3----------|

No quiero regresar, mi nave espacial
D      D*           Gm    A             D       D*         Gm      A
Viiiiiiiiii, vi volaaaaaaaaar, hacia el maaaaaaaaar, vi volaaaaaaaaaar

D,D*,Gm,A(x2)

e|-2------2------3------2-0-----|
B|---3------3------3--------2---|  x2
G|-----2------3------3----------|

Quise volar mi nave espacial
para no verte mas...
   D             D*            Gm            A
Eh oooooooooooo, oooooooohhhh, uuoooooooohh, aaooooh (x2)

Vi, vi volar, hacia el mar, vi volar, ahhhh

Sigo siendo el vampiro(x2)

D,D*,Gm,A

Gm,F,C,F,E,A(x2)- esa es la parte del 'bumchic, bumchic, babam chic...'
Suggest correction
Give kudos to tab author, rate the tab!
1 2 3 4 5
comments
print report bad tab
guest
You may want to rate the tab now too:
select rating
Please do not post tabs as comments. Select "correction" instead!