Oops, an error
Loading. Please wait.

En Esta Habitacion Tab

version 1
version 1

Interactive

15,357 views 42 this week
1 commentread comment
1 2 3 4 5
excellent!
x 3
add to favorites
launch autoscroll
font size
0
reset
how to read this tab
guitar tuner
Tab Pro tools
  • play this tab
  • loop segment
  • change instrument
  • show fretboard
  • metronome
Autoscroll
slow
fast
+/-
esc
set tempo
stop
Contributor
       1                     2
  E-----------------    E-------0----2--|
  B-----------------    B---------2--2--|
  G-2h4-4-2---------    G---2--------2--|
  D---------2-2h4---    D-2---2------4--|
  A-----------------    A------------4--|
  E-----------------    E------------2--|
         3                     4
  E--------0--------    E-----------0---|
  B----2-----3-2----    B-------2-----2-|
  G--2---2-------2--    G---2-----2-----|
  D-2---------------    D-2---2---------|
  A-----------------    A---------------|
  E-----------------    E---------------|

  Intro

  E-----------------------|
  B----12------12----12---|
  G-11----11-9----11------|
  D-----------------------|
  A-----------------------|
  E-----------------------|

  E----------------12----14-14-12--------------12-14-12-|
  B-10----10----10----10----------10---10---10----------|
  G----11----11---------------------11----11------------|
  D-----------------------------------------------------|
  A-----------------------------------------------------|
  E-----------------------------------------------------|

  E----------------12---14-14-12----------------12-14h12-|
  B-10----10----10----10---------10----10----10----------|
  G----11----11---------------------11----11-------------|
  D------------------------------------------------------|
  A------------------------------------------------------|
  E------------------------------------------------------|

   F#m    D     A     E     m
   Tanto tanto tanto      arpegio 1
   F#m    D     A     E
   Tiempo al tiempo      arpegio 2
   F#m    D     A     E
   Tanto tanto tanto     arpegio 3
   F#m    D    A     E
   Tiempo                arpegio 2
   F#m       D         A
   Estoy sintiéndome solo     arpegio 4
    E      F#m        D             A
   En este corazón en silencio te odio  arpegio 2
   F#m         D         A          E        F#m
   Estoy volviendo yo a verte en esta solución arpegio 3
      D          A      E
   Momentos de agobio  arpegio 2
   F#m     D     A    E
   Tanto tanto tanto
   F#m     D     A    E
   Tiempo
   F#m     D          A
   Estoy cayendo en tu mente  arpegio 4
       E       F#m            D           A     E
   En toda tu pasión en esta tela de araña  arpegio 2
   F#m     D           A         E
   Estoy rozando tu vientre en mi imaginación  arpegio 3
    D          A       E
   Deseos de hombre    arpegio 2
   F#m     D       A       E           F#m
   Recuerdo tu nombre en esta habitación
         D          A        E
   Tus labios tus besos
   F#m     D      A       E             F#m
   Recuerdo tu nombre en esta habitación
        D         A
   Tu cuerpo tu anhelo

   E--------------------------------------------------|
   B--------------------------------------------------|
   G-4-4-2---2---2------------------4-4--4-2---2-2----|
   D-4-----4---4---4---2---2-2h4-4--4-4------4----4-4-|
   A-----------------4---4----------------------------|
   E--------------------------------------------------|

   E---------------5---5----X-X-X-X-X-X-X-X------------|
   B-------5---5h7---7---7--7-7-7-7-7-7-7-7------------|
   G-2---4---6--------------6-6-6-6-6-6-6-6—-2-4-4-2---|
   D---4--------------------7-7-7-7-7-7-7-7----------4-|
   A---------------------------------------------------|
   E---------------------------------------------------|

   E----------------------------------------------------|
   B-----------------------------------------5--7h5-5h7-|
   G-2-2-----2-----5---5/7-4-4-2-4h2---2—4/6---6----6---|
   D-----4-4---4-4---6---------------4------------------|
   A----------------------------------------------------|
   E----------------------------------------------------|

   Recuerdo en esta habitación

   E------------------|
   B------------------|
   G--4-4p2-----------|
   D---------4--------|
   A------------------|
   E------------------|

   Tus labios tus besos

   E-----------------------------------------|
   B-----------------------------------------|
   G-4-4-2-4--4-2---2-2h4----2-2-----2-2-----|
   D-4-----4------4-------2h4----4-4-----4-4-| arpegio 2
   A-----------------------------------------|
   E-----------------------------------------|

   Tanto tanto tanto  arpegio 4
   Tiempo             arpegio 2
   Tanto tanto tanto  arpegio 3
   Tiempo

   Luego sigue el punteo de la introducción y luego de
   Eso hace esto q también sirve para acompañar la parte
   De recuerdo tu nombre .

   E-55-4-55-4-55-4-5-7-5-44-55-4-55-4-55-4-55-------|
   B-------------------------------------------------|
   G-------------------------------------------------|
   D-------------------------------------------------|
   A-------------------------------------------------|
   E-------------------------------------------------|


   E-444-55-4-55-4-55-4-5-7-5-44-55-4-55-------------|
   B-------------------------------------------------|
   G-------------------------------------------------|
   D-------------------------------------------------|
   A-------------------------------------------------|
   E-------------------------------------------------|

   E-4-4-5-5-4-5-5-----------------------------------|
   B---------------555-5h7---------------------------|
   G-----------------------2h4-2---------------------|
   D-----------------------------2h4-2---------------|
   A-----------------------------------2h4-2---------|
   E-----------------------------------------2-------|

  Bueno luego de eso empieza a seguir los acordes de f#m
  D A Y E pero le hace este arpegio en una parte q creo q
  Es una improvisación

   E-------0-----0------|
   B---2-----2-----2----|
   G-----2-----2--------|
   D-2------------------|
   A--------------------|
   E--------------------|

   Y en la parte final la segunda va haciendo esto para
   Acompañar los solos del piano

   E-5-5-4-4-5-5-4-4-----|
   B-5-5-5-5-5-5-5-5-----|
   G---------------------|
   D---------------------|
   A---------------------|
   E---------------------|
comments
We did not receive enough feedback on this tab! Please rate:
print report bad tab
1 2 3 4 5
1 comment total.
0 reply
martc_4 wrote on November 30 2010, 10:43 pm

Gracias por el tab, esta muy bueno y se me será de mucha ayuda.

Pero me preguntaba si tienes el tab de "Avenida Larco" de Fragil y si podrias postearlo, porque no lo encuentro en ninguna pagina.

Gracias.

I want to post or [tab]
guest
You may want to rate the tab now too:
select rating
Please do not post tabs as comments. Select "correction" instead!