Oops, an error
Loading. Please wait.

Fragil Tab

version 1
version 1

Whole song

2,863 views 1 this week
no commentswrite comment
1 2 3 4 5
please rate
add to favorites
launch autoscroll
font size
0
reset
how to read this tab
guitar tuner
Tab Pro tools
  • play this tab
  • loop segment
  • change instrument
  • show fretboard
  • metronome
×
Best way to learn
"Fragil"
Autoscroll
slow
fast
+/-
esc
set tempo
stop
Contributor
-Riff 1:
  E5     Em      Am      Em  Am
e:-------0-|-0-0-0-0-|-0-0-0-0-|
B:-------0-|-0-0-1-1-|-1-0-0-1-|
G:-9-9-9-0-|-0-0-2-2-|-2-0-0-2-|
D:-9-9-9-2-|-2-2-2-2-|-2-2-2-2-| *entra la bateria y se toca riff 2
A:-7-7-7-2-|-2-2-0-0-|-0-2-2-0-|
E:-------0-|-0-0-0-0-|-0-0-0-0-|

-Riff 2:
   A#5             A5    G5   E5    D5    E5
e:-------------|------------|---------|---------|
B:-------------|------------|---------|---------|
G:-15-15-15-15-|-x-14-14-12-|-9-9-9-7-|-7/9-9-9-|
D:-15-15-15-15-|-x-14-14-12-|-9-9-9-7-|-7/9-9-9-|
A:-13-13-13-13-|-x-12-12-10-|-7-7-7-5-|-5/7-7-7-|
E:-------------|------------|---------|---------|



Verso 1:

Em         Am           Em
Frágil no se ha vuelto fácil
   C        Em
Mandarlo al olvido
Am          B7
A un frío cañón

Em          Am         Em
Tierna y asesina perfecta
   C         Em
De mis ganas de odiarte
Am            B7
De morirme en tu voz
    Em       C
En una dulce pesadilla


-Riff 3: (Parecido al riff 2 pero con una pequeña variacion al final)
   A#5             A5    G5   E5    G5      A5
e:-------------|------------|----------|-------------|
B:-------------|------------|----------|-------------|
G:-15-15-15-15-|-x-14-14-12-|-9-9-9-12-|-12-14-14-14-|
D:-15-15-15-15-|-x-14-14-12-|-9-9-9-12-|-12-14-14-14-|
A:-13-13-13-13-|-x-12-12-10-|-7-7-7-10-|-10-12-12-12-|
E:-------------|------------|----------|-------------|



Verso 2:

Em             Am        Em
Cautivo en mi cuerpo rendido
   C             Em
De buscar el sentido
Am               B7
Que partiste en dos

Em      Am         Em
Y fácil tengo mil razones
C          Em
para extrañar
 Am             B7
Tú las pudiste olvidar?

Em         C            B
Y enciendo mis luces de día porque espero todavía



Coro:

  Em       D         B          C         G   D         A
Grito al cielo tu nombre y el viento lo esconde en su vanidad
  Em     D       B           C      G   D        A
Sigo siendo el mendigo que espera rendido gotas de humanidad

e:-----------------|-----------------|-----------------|-----------------|
B:-----------------|-----------------|-----------------|-----------------|
G:-9-9-x-9-x-9-x-9-|-9-9-x-9-x-9-x-9-|-9-9-x-9-x-9-x-9-|-9-9-x-9-x-9-x-9-|
D:-9-9-x-9-x-9-x-9-|-9-9-x-9-x-9-x-9-|-9-9-x-9-x-9-x-9-|-9-9-x-9-x-9-x-9-|
A:-7-7-x-7-x-7-x-7-|-7-7-x-7-x-7-x-7-|-7-7-x-7-x-7-x-7-|-7-7-x-7-x-7-x-7-|
E:-----------------|-----------------|-----------------|-----------------|
        Gotas de humanidad ...          Gotas de humanidad ...



Verso 3:
   A#5             A5    G5   E5    G5      A5
e:-------------|------------|----------|-------------|
B:-------------|------------|----------|-------------|
G:-15-15-15-15-|-x-14-14-12-|-9-9-9-12-|-12-14-14-14-|
D:-15-15-15-15-|-x-14-14-12-|-9-9-9-12-|-12-14-14-14-|
A:-13-13-13-13-|-x-12-12-10-|-7-7-7-10-|-10-12-12-12-|
E:-------------|------------|----------|-------------|
   Fácil  la    historia    es   más      frágil

   A#5             A5    G5   E5    G5
e:-------------|------------|----------|
B:-------------|------------|----------|
G:-15-15-15-15-|-x-14-14-12-|-9-9-9-12-|
D:-15-15-15-15-|-x-14-14-12-|-9-9-9-12-|
A:-13-13-13-13-|-x-12-12-10-|-7-7-7-10-|
E:-------------|------------|----------|
   Que en cien mil papeles hechos para volar

Em       C               B
Y enciendo mis luces de día

Y creer que aún eres mía



Coro:

  Em       D         B          C         G   D         A
Grito al cielo tu nombre y el viento lo esconde en su vanidad
  Em     D       B           C      G   D        A
Sigo siendo el mendigo que espera rendido gotas de humanidad



Punteo:
Ok, este es el problema con el punteo, la cantidad de efectos
distorcionan bastantes las notas asi que esto fue lo que creo
que suena decente

e:-----------------|-------------8-9b--8------|
B:-----7-8-7-----7-|-----8-7------------9p8p7-|
G:-----------9-8---|---------9-8--------------|
D:---9-------------|---9----------------------|
A:-7---------------|-7------------------------|
E:-----------------|--------------------------|

  Em                  D        B         C                       G
e:-------------------|--------------------|----------------------------|
B:-------------------|12------------------|----------------------------|
G:-------12-14-12----|12------------12-12-|12-12-14p12-14p12--------12-|
D:-12h14----------14-|----x-x-12h14-------|------------------x-12h14---|
A:-------------------|--------------------|----------------------------|
E:-------------------|--------------------|----------------------------|

         D             A
e:-------------------------------|
B:-------------12-12-12-12-12-12-|
G:-14-14-14-14-14-14-14-14-14-12-|
D:-------------------------------|
A:-------------------------------|
E:-------------------------------|


Em        C              B                 C
e:-----/19~~~~~--------19-17/12~-----------------/19~~~~~-|
B:--------------------------------------------------------|
G:--------------------------------------------------------|
D:--------------------------------------------------------|
A:--------------------------------------------------------|
E:--------------------------------------------------------|
  Y enciendo mis luces de día y creer que aun eres mia



Coro:

  Em       D         B          C         G   D         A
Grito al cielo tu nombre y el viento lo esconde en su vanidad
  Em     D       B           C      G   D            A
Sigo siendo el mendigo que espera rendido si tu volverás

e:-----------------|-----------------|-----------------|-----------------|
B:-----------------|-----------------|-----------------|-----------------|
G:-9-9-x-9-x-9-x-9-|-9-9-x-9-x-9-x-9-|-9-9-x-9-x-9-x-9-|-9-9-x-9-x-9-x-9-|
D:-9-9-x-9-x-9-x-9-|-9-9-x-9-x-9-x-9-|-9-9-x-9-x-9-x-9-|-9-9-x-9-x-9-x-9-|
A:-7-7-x-7-x-7-x-7-|-7-7-x-7-x-7-x-7-|-7-7-x-7-x-7-x-7-|-7-7-x-7-x-7-x-7-|
E:-----------------|-----------------|-----------------|-----------------|
       Si tu volverás ...          si tu volverás ...

e:-----------------|-----------------|-----------------|-----------------|
B:-----------------|-----------------|-----------------|-----------------|
G:-9-9-x-9-x-9-x-9-|-9-9-x-9-x-9-x-9-|-9-9-x-9-x-9-x-9-|-9-9-x-9-x-9-x-9-|
D:-9-9-x-9-x-9-x-9-|-9-9-x-9-x-9-x-9-|-9-9-x-9-x-9-x-9-|-9-9-x-9-x-9-x-9-|
A:-7-7-x-7-x-7-x-7-|-7-7-x-7-x-7-x-7-|-7-7-x-7-x-7-x-7-|-7-7-x-7-x-7-x-7-|
E:-----------------|-----------------|-----------------|-----------------|
       Si tu volverás ...          si tu volverás ...


Final:

   A#5             A5    G5   E5    D5    E5
e:-------------|------------|---------|---------|
B:-------------|------------|---------|---------|
G:-15-15-15-15-|-x-14-14-12-|-9-9-9-7-|-7-9-9-9-| x4
D:-15-15-15-15-|-x-14-14-12-|-9-9-9-7-|-7-9-9-9-|
A:-13-13-13-13-|-x-12-12-10-|-7-7-7-5-|-5-7-7-7-|
E:-------------|------------|---------|---------|

e:---------|
B:---------|
G:-9-9-9-9-|
D:-9-9-9-9-|  *FIN
A:-7-7-7-7-|
E:---------|

comments
We did not receive enough feedback on this tab! Please rate:
print report bad tab
1 2 3 4 5
I want to post or [tab]
guest
You may want to rate the tab now too:
select rating
Please do not post tabs as comments. Select "correction" instead!