Oops, an error
Loading. Please wait.

Hembra Tab

version 1
version 1

Whole song

847 views 1 this week
no commentswrite comment
1 2 3 4 5
please rate
add to favorites
launch autoscroll
font size
0
reset
how to read this tab
guitar tuner
Tab Pro tools
  • play this tab
  • loop segment
  • change instrument
  • show fretboard
  • metronome
×
Best way to learn
"Hembra"
Autoscroll
slow
fast
+/-
esc
set tempo
stop
Contributor
SIMBOLOGIA:

  s= slide
  h= hammer on
  p= pull off
  ~= vibrato
  b= bend
 pb= pre-bend (bend y luego regresar)
  x= tocar la cuerda por encima
 ()= nota fantasma

GUITARRA I

INTRO_00:12

E|-9--------------------------------------9~|
B|---9-----------------------------9~----9--|
G|-----9~---9h11~--xx-11p9-------9~--9~-----|
D|-----------------xx------11~--------------|
A|------------------------------------------|
E|------------------------------------------|

E|-12-9-----------------------------------(9)
B|-----12-9----------------------------9--(9)
G|----------11pb-9-11~---9-11p9---9~--9-9---|
D|------------------------------11----------|
A|------------------------------------------|
E|------------------------------------------|


Hembra nunca es tarde...              Siempre tuya la eternidaaaaaad ad...

RIFF1_00:40                           RIFF2_00:51

E|-------------------------------|    E|------------------------9-9-9-9-|
B|----------------------------9--|    B|-------------------------9-9-9-9|
G|-9-9h11~--11-11b-9---------9-9~|    G|--11pb-9------------------------|
D|-------------11b---9s11~-------|    D|--11pb--11~---------------------|
A|-------------------------------|    A|--------------------------------|
E|-------------------------------|    E|--------------------------------|


Ahhhh ah ohh

RIFF3_00:59

E|-------------------------|
B|-7s9-12p9~---------------|
G|--------------6s8-9p8--6~|
D|-------------------------|
A|-------------------------|
E|-------------------------|


Mientras no puedas hablar... umm. . .  Entrar. . .  y verte llorar

RIFF4_01:11                            RIFF5_01:23

E|-------------------------------4|    E|--------------------------------|
B|---5------5-4----------5------5-|    B|--5-4---------------------5-5h7-|
G|--6-----------6~--------6~------|    G|-------6-(4)--------------------|
D|-6--------------------6---------|    D|--------------------------------|
A|4-------------------------------|    A|--------------------------------|
E|--------------------------------|    E|--------------------------------|




01:23...No ocultes más tus sentimientos
E|--------------------------------------------------------------------|
B|--(F#m-5ta)-------(A-5ta)-----(B-5ta)-------------------------------|
G|--------------------------------------------------------------------|
D|-4-4-4-4-4-4-x----7-7-7-x-----9-9-9-x-------------------------------|
A|-4-4-4-4-4-4-x----7-7-7-x-----9-9-9-x-------------------------------|
E|-2-2-2-2-2-2-x----5-5-5-x-----7-7-7-x-------------------------------|


... ahora comprendo cuál es tu sol...

MAIN RIFF_01:38  (es mejor escuchar el CD para sacarlo perfecto)

E|-x-9-9-xx-9999-x-9-9-xx-9999-x-9-9-xx-9999-x-9-9-xx-9999---|
B|-x-9-9-xx-9999-x-9-9-xx-9999-x-9-9-xx-9999-x-9-9-xx-9999---|
G|-x-9-9-xx-9999-x-9-9-xx-9999-x-9-9-xx-9999-x-9-9-xx-9999---|
D|-----------------------------------------------------------|
A|-----------------------------------------------------------|
E|-----------------------------------------------------------|

RIFF6_02:01

E|------------------------------------------------9----|
B|-------------------------------------------9---9-----|
G|-9-9h11-9~---11pb-9-11~---9-11p9----9~---9--9--------|
D|---------------------------------11------------------|
A|-----------------------------------------------------|
E|-----------------------------------------------------|



Malditos miedos trastornan... umm. . .  Entrar. . .y verte llorar

RIFF4_02:14                            RIFF5_02:25

E|-------------------------------4|    E|------------------------------|
B|---5------5-4----------5------5-|    B|--5-4--------------5-5h7-7s9-9|
G|--6-----------6~--------6~------|    G|-------6-(4)------------------|
D|-6--------------------6---------|    D|------------------------------|
A|4-------------------------------|    A|------------------------------|
E|--------------------------------|    E|------------------------------|


...No ocultes más tus sentimientos...


TECLADO RIFF_02:42 & MAIN RIFF

 |----------3x-------------|

E|-7h9-------------------------7h9---------------------|
B|-----9~~~~--7h9------------------9~~~~~~-------------|
G|----------------6~~~~--------------------------------|
D|-----------------------------------------------------|
A|-----------------------------------------------------|
E|-----------------------------------------------------|


03:06...No ocultes más tus sentimientos...  (CON TODO)

E|-----------------------------------------------------|
B|-10b-10b-10b--10b10b--10b10b--10b10b-10b10b----------|
G|-11b-11b-11b--11b11b--11b11b--11b11b-11b11b----------|
D|-11b-11b-11b--11b11b--11b11b--11b11b-11b11b----------|
A|-----------------------------------------------------|
E|-----------------------------------------------------|


... ahora comprendo cuál es tu sol...(2x)

MAIN RIFF_03:12


GUITARRA II

ACORDES:

      C#m   G#    E     A ó A    F#m    B ó B
E|----4-----4-----0-----0---5-----2-----2---7----|
B|----5-----4-----0-----2---5-----2-----4---7----|
G|----6-----5-----1-----2---6-----2-----4---8----|
D|----6-----6-----2-----2---7-----4-----4---9----|
A|----4-----6-----2-----0---7-----4-----2---9----|
E|----4-----4-----0-----0---5-----2-----2---7----|


VERSO: C#m-G#-E-A
Hembra nunca es tarde
Para alcanzar los sueños
Siempre tuya la eternidad

VERSO: C#m-G#-E-A
Mientras no puedas hablar
Ni mostrar la verdad, siente
Entrar y verte llorar al verme

PRE-CORO: F#m-F#m-A-B
¡No ocultes más tus sentimientos!

CORO: C#m-G#-E-A
Ahora comprendo cuál es tu sol
Pretendo un encuentro en constelación
Te dejo la luna por si no estoy
Y un cuarto menguante en señal de amor

VERSO: C#m-G#-E-A
Malditos miedos, trastornan
Violentan tu voz hiriente
Entrar y verte llorar al verme

PRE-CORO: F#m-F#m-A-B
¡No ocultes más tus sentimientos!

PUENTE: C#m-G#-E-A

PRE-CORO: F#m-F#m-A-B
¡No ocultes más tus sentimientos!

CORO(2x): C#m-G#-E-A
Ahora comprendo cuál es tu sol
Pretendo un encuentro en constelación
Te dejo la luna por si no estoy
Y un cuarto menguante en señal de amor

comments
We did not receive enough feedback on this tab! Please rate:
print report bad tab
1 2 3 4 5
I want to post or [tab]
guest
You may want to rate the tab now too:
select rating
Please do not post tabs as comments. Select "correction" instead!