Oops, an error
Loading. Please wait.

Invencible Tab

version 1
version 1

Whole song

Interactive

1,306 views 1 this week
no commentswrite comment
1 2 3 4 5
please rate
add to favorites
launch autoscroll
font size
0
reset
how to read this tab
guitar tuner
Autoscroll
slow
fast
+/-
esc
set tempo
stop
Help us to improve Ultimate-Guitar.com Take our survey!
×
Author
      A       D
 e||------------2--------||
 B||---2----------3------|| este arpegio es durante
 G||-----2---------------|| toda la canción en las 
 D||-2--------0----------|| notas  La(A) y Re(D)
 A||---------------------||
 E||---------------------||


             A       
 e||---------0-----------||
 B||---2-------2---2-----|| este arpegio va antes de 
 G||-----2-------2-------|| entrar al pre - coro
 D||-2-----2-------------|| 
 A||---------------------||
 E||---------------------||
       
 e||-14-14-12-10-9-10-9----||
 B||-------------------10--||  
 G||-----------------------|| se repite 2 veces al
 D||-----------------------|| inicio del pre - coro
 A||-----------------------||
 E||-----------------------||

 e||-------------||
 B||-------------||  
 G||-9-11-12-11--|| va al final del coro 
 D||-------------|| 
 A||-------------||
 E||-------------||

Puedes volar ser libre
    A       D      A     D
Invencible puedes ser tu
     A            D    A     D
Sueles odiar tus miedos
    A       D      A      D
Tus sueños siempre tu
      A    D          A        
(Pre Coro)

  Y vuelves otra vez a inventar
E           D                E   
    Quieres sentirte bien y verte bien, bien
                 D
(Coro) 

    No es mas que una actuación
F#m        E         A          D
    El pedir perdón 
F#m        E      A       B
    No te hace falta sonreír
F#m              E      A       D
    Solo acaba con esa actitud
          F#m          E         D     
-------------------------------------
A           D         A          D

Y dejar ver tras tus ojos
   A       D         A        D
Toda esa estúpida decrepitud
            A         D    A        D
Hablar y andar fingiendo
   A       D         A      D
Pides mas   pides tu
      A   D        A        

(Pre Coro)

(Coro)


      F#m       E          A       D

 e||---------------------------------------------||
 B||---------------------------------------------||
 G||-6b8-4-----6b8-4-----------------------------||
 D||-------7-4-------7-4---4-7-4----4------------||
 A||---------------------7--------7---7-4--------||
 E||--------------------------------------7-5----||

 e||-------------------------------||
 B||---------5-------5---7-5-7-----||
 G||-----4-6---6-4-6---6-----------||
 D||-4-7---------------------------||
 A||-------------------------------||
 E||-------------------------------||

    No te hace falta sonreír
F#m                 E        A       D
    Solo acaba con esa actitud         Heeeeeeaaaaaaa
              F#m             E               D


 e||-12----------------------14-17-14---||
 B||----14-13-12----12-13-14------------||  
 G||-------------12---------------------|| 
 D||------------------------------------|| 
 A||------------------------------------||
 E||------------------------------------||

No es mas que una actuación
F#m        E         A          D
    El pedir perdón 
F#m        E      A       B
    No te hace falta sonreír
F#m              E      A       D
    Solo acaba con esa actitud
          F#m          E         D
Suggest correction
What's this?
You can suggest a correction to this tab. Community and Mods will review your correction and vote to approve or reject it.
comments
We did not receive enough feedback on this tab! Please rate:
print report bad tab
1 2 3 4 5
guest
You may want to rate the tab now too:
select rating
Please do not post tabs as comments. Select "correction" instead!