Oops, an error
Loading. Please wait.

La Casa De Los Gritos Tab

version 1
version 1

Whole song

1,066 views 3 this week
no commentswrite comment
1 2 3 4 5
3 more votes to show rating
add to favorites
launch autoscroll
font size
0
reset
how to read this tab
guitar tuner
Autoscroll
slow
fast
+/-
esc
set tempo
stop
Help us to improve Ultimate-Guitar.com Take our survey!
×
Author
Em, G, A, C (BIS)


        Em        G    A         C             Em      G       A  A4sus  A
	Hemos entrado a la casa de los gritos , mientras duermes

        Em    G      A                C        Em    G        A A4sus A
	criaturas blancas que entran y se van   sin sorprender

        C          A       A4sus  A       C         A
	tu llanto despertó al animal   ya bien atrás

                           A      A4sus      A
	no conoce piedad   el amo de los gritos

        Em     G        A       C   Em       G       A        C
	hey, hey que haces tú acá, nadie es bienvenido en este lugar

        Em     G     A        C       Em        G       A    A4sus    A
	heyyyyy deja tu risa atrás,  no se permite aquí intentos de libertad

Solo 1:

1----------------------------------------------|
2----------------------------------------------|
3--------0-------0-----------0----2p0---0------|
4------2---2-------0-------2---2------2--------|
5-----------------------0----------------------|
6---0----------3-------------------------------|


1----------------------------------------------|
2----------------------------3--3--3--2--3--0--|
3--------0-------0-----------3--3--3--3--3--0--|
4------2---2-------0---------3--3--3--3--3--0--|
5----------------------0-----------------------|
6---0----------3-------------------------------|


        Em        G    A         C             Em      G       A  A4sus  A
	Hemos entrado a la casa de los gritos mientras duermes

        Em    G      A                C        Em    G        A A4sus A
	criaturas blancas que entran y se van sin sorprender

        C          A       A4sus  A       C       A                         A      A4sus 
    A
	tu llanto despertó al animal ya bien atrás no conoce piedad     el amo de los gritos

        Em     G        A       C   Em       G       A        C
	hey, hey que haces tú acá, nadie es bienvenido en este lugar

        Em     G     A        C
	heyyyyy deja tu risa atrás,

        Em        G       A         C
	no se permite aquí intentos de libertad

        Em     G     A        C        Em     G     A        C
	intentos de libertaaaaaaaaaaad intentos de libertaaaaad

        Em     G     A        C   Em
	intentos de libertaaaaad


Solo 2:

1--------------3------3------3--------------|
2---0--0---------3-2----2-1----1-0----------|
3---0----0----------------------------------|        x 4
4---2------2--------------------------------|
5-------------------------------------------|
6-------------------------------------------|


        Em     G        A       C   Em       G       A        C
	hey hey que haces tú acá nadie es bienvenido en este lugar

        Em     G     A        C       Em        G       A    A4sus    A
	heyyyy deja tu risa atrás no se permite aquí intentos de libertad

        Em     G        A       C   Em       G       A        C
	hey heyyyy que haces tú acá nadie es bienvenido en este lugar

        Em      G      A         C        Em          G         A
	heyyyyy deja, deja tu risa atrás, no se permite aquí.
Suggest correction
Give kudos to tab author, rate the tab!
1 2 3 4 5
comments
print report bad tab
guest
You may want to rate the tab now too:
select rating
Wanna post a correction for this tab? Suggest correction