Oops, an error
Loading. Please wait.

Libido Tab

version 1
version 1

Whole song

12,696 views 12 this week
no commentswrite comment
1 2 3 4 5
please rate
add to favorites
launch autoscroll
font size
0
reset
how to read this tab
guitar tuner
Autoscroll
slow
fast
+/-
esc
set tempo
stop
Help us to improve Ultimate-Guitar.com Take our survey!
×
    GRUPO:LIBIDO
  CANCION:IGUAL"LIBIDO"

   Esta es una de las emjores pa mi de libido tiene un ritmo la cagada tienen q 
   escucharla les va a gustar un culo naa mas solo esuchen y toquen y no sean 
   caros saquenselas las canciones no se las bajen pa afinar el oido q ta lleno 
   de seriya o seriyo como se escriba un saludo pa cachete, la basura, anita , 
   la rana y pal dog y pa mi.bueno aca les ya!!!!

Esta canción se llama como el grupo , LIBIDO
no estoy seguro de la letra asi que mejor
revísenla en www.libidonet.com ,en la parte de
discografía, aca estan los acordes de la
canción:
   G   C   B
e|-X---X---X---
B|-X---X---X--- la forma como rasguear estos 
G|-X---5---4---  acordes saquenla escuchando
D|-5---5---4---  el Cd
A|-5---3---2---
E|-3---X---X---

h    hammer
p    pull off
^    bend
~    vibrato
---------------------------------------------------
Intro :
 Em
|-X-  
|-X-
|-X-
|-2-   dejar un momento sonando este acorde y luego
|-2-   delizar hacia arriba y luego hacia abajo 
|-0-
Em  G  C  B
Em  G  C  B
    
* MINUTO 0:19 (arpegio)
|-----------------------------------
|-----------------------------------  parece que esta 
|-----0---------------5-------4-2---  parte tiene efecto
|---2---2-----5-----5---5---4-------  chorus
|-----------5---5-3-------2---------
|-0-------3-------------------------

nos vimos denuevo , pensaste en volver a mí ]_ esta parte es con
me tienes contigo , no sabes lo que aprendí ]  el arpegio
                
* MINUTO  0:44 (tiene un efecto raro)
 
                 Em  G C              B        Em G C B
a llorar sin lagrimas , a no creer en los sueños
                  Em  G C
a no envolverme en tus besos y en tus caricias 
                        Em  G  C  B
porque todas son mentiras

* MINUTO 1:00 (esta parte es con bastante distorsión)

y te quito las ropas , y yo entro en tu cuerpo
y juntando las almas, tu cuerpo y el mio se envuelven en libido

* MINUTO 1:28 (arpegio)
termino tu sueño de ser la dueña de mi 
empieza tu infierno comprenda lo que aprendí

* MINUTO 1:43 (efecto raro)

a llorar sin lagrimas , a no creer en los sueños
a no envolverme en tus besos y en tus caricias
porque todas son mentiras

y te quito las ropas , y yo entro en tu cuerpo
y juntando las almas, tu cuerpo y el mio se envuelven en libido


* MINUTO 2:23    (Solo)
|-------------------------------------------------------
|------8h10-10^-10-8-10-8~-------8h10-10^^-8---8-10-8---
|--7h9---------------------9-7h9-------------9--------9-
|-------------------------------------------------------
|-------------------------------------------------------
|-------------------------------------------------------

y te quito las ropas , y yo entro en tu cuerpo
y juntando las almas, tu cuerpo y el mio se envuelven en libido
y te quito las ropas , y yo entro en tu cuerpo
y juntando las almas, tu cuerpo y el mio se envuelven en libido

 **** esta es una parta extraña de la canción 

* MINUTO 3:31
|--------------------------------------
|-----9-------9-------9----11----9-----
|--10---10-10---10-10---10----10---10--
|--------------------------------------
|--------------------------------------
|--------------------------------------

|--------------------------------------
|-----9-------9-------9-------9--------
|--10---10-10---10-10---10-12---12p10--
|--------------------------------------
|--------------------------------------
|--------------------------------------
no quiero verte jamas con el , 
el odio en mi alma se pone de pie
con un arma en la mano no supe que hacer

/////// ojala les ayude de algo este tab , no se si estara bien 
hecho  , pero si se toca con bastante distorsion no se
nota mucho las partes que estan mal

 y q salgan afuera mas grupos peruanos como este carajo!!!!!
    pa cualquier huevada escriban a jiv_20@hotmail.com
Suggest correction new What's this?
You can suggest a correction to this tab. Community and Mods will review your correction and vote to approve or reject it.
comments
We did not receive enough feedback on this tab! Please rate:
print report bad tab
1 2 3 4 5
guest
You may want to rate the tab now too:
select rating
Please do not post tabs as comments. Select "correction" instead!