Oops, an error
Loading. Please wait.

Mal Tiempo Tab

version 1
version 1

Whole song

267 views 1 this week
no commentswrite comment
1 2 3 4 5
please rate
add to favorites
launch autoscroll
font size
0
reset
how to read this tab
guitar tuner
Tab Pro tools
  • play this tab
  • loop segment
  • change instrument
  • show fretboard
  • metronome
×
Best way to learn
"Mal Tiempo"
Autoscroll
slow
fast
+/-
esc
set tempo
stop
Contributor
SIMBOLOGIA:

 s= slide
 h= hammer on
 p= pull off
 ~= vibrato
 b= bend

SOLO (Am Em) 01:35 min

E|--------------------------------------------------------8—8h10-8----|
B|-------------------------8-10~--10-8--10-8ss3-----10-12---------12-10
G|----5~---5~-5-7-----7s9-----------------------2s4-------------------|
D|---7------------7~--------------------------------------------------|
A|--7-----------------------------------------------------------------|
E|--------------------------------------------------------------------|


E|--------------------------------------------------------------------|
B|-10h8-------------------------3-3s5-3------3s5-3--3s5-3--3s5-3------|
G|------9-7b-7-5~--5p3---2~---5---------5-2~---------------------5-2~-|
D|---------------------5----------------------------------------------|
A|--------------------------------------------------------------------|
E|--------------------------------------------------------------------|


E|-12b-12b-12h10----12~---15-12s10----------------10-12~--15-12~~~~~~~|
B|---------------13----------------13-10~---10s13---------------------|
G|--------------------------------------------------------------------|
D|--------------------------------------------------------------------|
A|--------------------------------------------------------------------|
E|--------------------------------------------------------------------|


OUTRO 03:06 min
E|-----------------------0-----------------------------------|
B|----------1-----1h3----1-----------------------------------|
G|-----------2--------0--2-----------------------------------|
D|-------2----2----------2-----------------------------------|
A|-0-2-3-------2---------0-----------------------------------|
E|-----------------------------------------------------------|


VERSO: Am Em (1 tiempo c/u)

Golpes en la pared
no me esperes mas al anochecer
lluvia que dejas caer
sabes que no habra un adios

Otra vez
otra vez y ez   F E (1 tiempo c/u)1vez
otra vez

vientos que te aceleran
aunque el tiempo pase
algunas marcas quedan
sueños que se ven romper
con pasos solitarios
vuelvo otra vez
otra vez y ez

CORO: F E Am C (2x)
      F E Am Em Am Em
      F E Am Em Am Em

Y buscaras un nuevo sol
cuando las nuves se abran
no olvidaras todo
lo que nos dijimos
porque en tu sangre mis palabras
llevaras contigo
Uuuuhhh uhhhh

SOLO (Am Em) 01:35 min

CORO: F E Am C (2x)
      F E Am Em Am Em
      F E Am Em Am Em

Y buscaras un nuevo sol
cuando las nuves se abran
no olvidaras todo
lo que nos dijimos
porque en tu sangre mis palabras
llevaras contigo
Uuuuhhh uhhhh

OUTRO 03:06 min
comments
We did not receive enough feedback on this tab! Please rate:
print report bad tab
1 2 3 4 5
I want to post or [tab]
guest
You may want to rate the tab now too:
select rating
Please do not post tabs as comments. Select "correction" instead!