Oops, an error
Loading. Please wait.

Malvada Bass Tab

version 1
version 1

Whole song

Interactive

1,347 views 1 this week
no commentswrite comment
1 2 3 4 5
please rate
add to favorites
launch autoscroll
font size
0
reset
guitar tuner
Autoscroll
slow
fast
+/-
esc
set tempo
stop
Help us to improve Ultimate-Guitar.com Take our survey!
×
Author
G|---------------------------------------------|
D|---------------------------------------------|
A|--4-2-77777777777777---------77777777777-----|
E|---------------------5-5-7-7-----------------|

G|---------------------------------------------|
D|---------------------------------------------|
A|-777777777-4-2-777777777777----777777777777--|
E|----------------------------55---------------|
coro
G|---------------------------------------------------------------------|
D|------------------------------------99-7-6---------------------------|
A|--55-22-000000000000-77-99-111111----------7------9----------9-------|
E|---------------------------------------------7-77----7--7-77----7----|

G|----------------------------------------------------------------------|
D|------6-------------------------------------99-7-6--------------------|
A|-4-44---4-4-444-66-00000000000-77-99-111111--------7------9--------9--|
E|-----------------------------------------------------7-77--7-7-77----7|

G|----------------------------------------------------------|
D|------6----------------------------99-7-6-----------------|
A|-4-44---4-4-444-6666--77-99-111111--------7---------------|
E|----------------------------------------------------------|

VERSO
G|--------------------------------------------------|
D|--------------------------------------------------|
A|-77777777777777-4-2-777777777---------77777777777-|
E|------------------------------5-5-7-7-------------|

G|-----------------------------------------------------|
D|-----------------------------------------------------|
A|-77777777777777-4-2-7777777777777----77777777777777--|
E|----------------------------------55-----------------|


coro
G|---------------------------------------------------------------------|
D|------------------------------------99-7-6---------------------------|
A|--55-22-000000000000-77-99-111111----------7------9----------9-------|
E|---------------------------------------------7-77----7--7-77----7----|

G|----------------------------------------------------------------------|
D|------6-------------------------------------99-7-6--------------------|
A|-4-44---4-4-444-66-00000000000-77-99-111111--------7------9--------9--|
E|-----------------------------------------------------7-77--7-7-77----7|

G|----------------------------------------------|
D|------6---------------------------------------|
A|-4-44---4-4-444-6666--7777777777777-----------|
E|----------------------------------------------|

G|---------------------------------------------------------------------|
D|------------------------------------99-7-6---------------------------|
A|--55-22-000000000000-77-99-111111----------7------9----------9-------|
E|---------------------------------------------7-77----7--7-77----7----|

G|--------------------|
D|------6-------------|
A|-4-44---4-4-444-----|
E|--------------------|

G|------------------------------|
D|------------------------------|
A|-77777777777777-4-2-777777777-|
E|------------------------------|

G|---------------------------------------------------------------------|
D|------------------------------------99-7-6---------------------------|
A|--55-22-000000000000-77-99-111111----------7------9----------9-------|
E|---------------------------------------------7-77----7--7-77----7----|

G|----------------------------------------------------------------------|
D|------6-------------------------------------99-7-6--------------------|
A|-4-44---4-4-444-66-00000000000-77-99-111111--------7------9--------9--|
E|-----------------------------------------------------7-77--7-7-77----7|


G|---------------------------------|
D|------6--------------------------|
A|-4-44---4-4-444-6666-------------|
E|---------------------------------|

G|---------------------------------|
D|---------------------------------|
A|-7777777777777777-4-2------------|             x4
E|---------------------------------|

G|---------------------------------|
D|---------------------------------|
A|--7------------------------------|
E|---------------------------------|
Suggest correction
Give kudos to tab author, rate the tab!
1 2 3 4 5
comments
print report bad tab
guest
You may want to rate the tab now too:
select rating
Please do not post tabs as comments. Select "correction" instead!